Oops, an error
Loading. Please wait.

On Your Own Bass Tab

789 views 3 this week
no commentswrite comment
1 2 3 4 5
please rate
add to favorites
launch autoscroll
font size
0
reset
guitar tuner
Tab Pro tools
  • play this tab
  • loop segment
  • change instrument
  • show fretboard
  • metronome
×
Best way to learn
"On Your Own"
Autoscroll
slow
fast
+/-
esc
set tempo
stop
Contributor
Tuning
D A D G B E
Song: On Your Own
Artist: We Are The In Crowd
Album: Best Intentions
Bass Player: Mike Ferri
Tuning: Drop D

Tabbed By : posem21uk  


| /  slide up
| \  slide down
| h  hammer-on
| p  pull-off
| ~  vibrato
| +  harmonic
| x  Mute note
| <> Bend note


[Notes are grouped together so that they are easier to read/count, no other reason]


Intro (0:00)

G|-----------------------------------------------------------------------------------|
D|-----------------------------------------------------------------------------------|
A|---------------------3333-3333-3333-3333--55555-55555--7-8-------------------------|
D|-3333-3333-3333-3333---------------------------------------77-88-77-88---8-7-5--3--|

Verse 1 (0:14)

G|---------------------------------------------|
D|---------------------------------------------|
A|---------------------------------------------|
D|---------8-8---------------------------777---|

G|--------------------------------------------------------------------------------------|
D|--------------------------------------------------------------------------------------|
A|--------------------------------------------5555-55-8---------------------------------|
D|-3333-3333-3333-3--8-8--3333-3333-3333-3333-----------8888-8888-3333-3333-3333-3333---|

Pre-Chorus (0:40)

G|-----------------------------------------------------|
D|-----------------------------------------------------|
A|------5---------8----------8--------8----------------|
D|-5--5---5----7-----7---8-------8----8-----------15\--|

Chorus (0:47)

G|--------------------------------------------------------------------------------------|
D|--------------------------------------------------------------------------------------|
A|---------------------3333-3333-3333-3333-5555-55-3333-33-77-88----------------8-10-8--|
D|-3333-3333-3333-3333-------------------------------------------8888-8888-8888---------|

G|----------------------------------------------------------------------------------|
D|----------------------------------------------------------------------------------|
A|-----------------------------------------5555-55-3333-33-77-88--------------------|
D|-3333-3333-3333-3333-7777-7777-7777-7777-----------------------88888-88-10-10-10--|

Pre-Verse (1:14)

G|------------------------------|
D|------------------------------|
A|------------------------------|
D|-15\---3333-3333-3333-3--777--|

Verse 2 (1:18)

G|----------------------------------------------------------------------------------|
D|----------------------------------------------------------------------------------|
A|-8888-8888-8888-8-----8888-8888-8888-8888-5555-7-8--------------------------------|
D|------------------8-8------------------------------8888-8888-3333-3333-3333-3333--|

Pre-Chorus (1:31)

G|-------------------------------------------------------|
D|-------------------------------------------------------|
A|--------------------------------8-----8-----8-----8----|
D|-5-5-------7-7---------15\---88---888---888---888------|

G|-------------------------------------------------|
D|-------------------------------------------------|
A|------------------------3333-3333-/-15-15-15-15--|
D|-5-5-------7-7-----------------------------------|

Chorus (1:44)

G|--------------------------------------------------------------------------------------|
D|--------------------------------------------------------------------------------------|
A|---------------------3333-3333-3333-3333-5555-55-3333-33-77-88----------------8-10-8--|
D|-3333-3333-3333-3333-------------------------------------------8888-8888-8888---------|

G|-----------------------------------------------------------------|
D|-----------------------------------------------------------------|
A|-----------------------------------------5555-55-3333-33-77-88---|
D|-3333-3333-3333-3333-7777-7777-7777-7777-------------------------|

G|-------------------------------------------------------------------|
D|-------------------------------------------------------------------|
A|-------------------------------------------------------------------|
D|-88888-888--10-10-10-10--10-10-10-10--10-10-10-10--10-10-10---15\--|

Bridge (2:12)

G|---------------------------------------------------------------------------------|
D|---------------------------------------------------------------------------------|
A|-------------------------------3333-3-3---------------------3333-3333-3333-3333--|
D|-8888-8888-8888-8888-0000-0000----------8888-8888-8888-8888----------------------|

G|-5555-5555-5555-5555--|
D|----------------------|
A|----------------------|
D|----------------------|

Build Up (2:28)

G|-------------------------------------------------------------|
D|------------------------------------------------------88888--|
A|--------------3-------------5--------------------------------|
D|-3-------------------------------0----------8888-8888--------|

End Chorus (2:41)

G|--------------------------------------------------------------------------------------|
D|--------------------------------------------------------------------------------------|
A|---------------------3333-3333-3333-3333-5555-55-3333-33-77-88----------------8-10-8--|
D|-3333-3333-3333-3333-------------------------------------------8888-8888-8888---------|

G|-----------------------------------------------------------------------------------|
D|---------------------------------------------------------------------8888-8888-88--|
A|-------------------------------------------------3333-33-77-88---------------------|
D|-3333-3333-3333-3333-7777-7777-7777-7777-0000-00---------------88888---------------|

Ending (3:08)

G|-----------------------------------------||
D|-----------------------------------------||
A|--------------------------8--------------||
D|--5-5\-------7-7\---------8--------------||


===============================================================================
comments
We did not receive enough feedback on this tab! Please rate:
print report bad tab
1 2 3 4 5
I want to post or [tab]
guest
You may want to rate the tab now too:
select rating
Please do not post tabs as comments. Select "correction" instead!