Oops, an error
Loading. Please wait.

See You Around Bass Tab

312 views 3 this week
no commentswrite comment
1 2 3 4 5
please rate
add to favorites
launch autoscroll
font size
0
reset
guitar tuner
Tab Pro tools
  • play this tab
  • loop segment
  • change instrument
  • show fretboard
  • metronome
Autoscroll
slow
fast
+/-
esc
set tempo
stop
Contributor
Tuning
C# G# C# F# A# D#
Song: See You Around
Artist: We Are The In Crowd
Album: Best Intentions
Bass Player: Mike Ferri
Tuning: C# G# C# F#

Tabbed By : posem21uk  


| /  slide up
| \  slide down
| h  hammer-on
| p  pull-off
| ~  vibrato
| +  harmonic
| x  Mute note
| <> Bend note

Intro - Bass comes in at (0:22)

F#|-----------------------------------------11--9---------------------------------|
C#|-------------------------------7-9-7--------------5--7--9-----9---------5------|
G#|------9--7----9----------5---7-----------------------------------5--7-9--------|
C#|-7---------------9----9--------------------------------------------------------|

Chorus (0:36)

F#|----------------------------------------------11-9------|
C#|---------------------------------------------------7-9--|
G#|---------------------------2--2--2-4--------------------|
C#|-7-7--7-7---2--2-2--22-444------------0--0-0------------|

F#|----------------------------------------------11-9------|
C#|---------------------------------------------------7-9--|
G#|---------------------------2--2--2-4--5--5-5------------|
C#|-7-7--7-7---2--2-2--22-444------------------------------|

F#|----------------------------------------------------------|
C#|-7-7--77-9-9----------------9-9--99-11--------------------|
G#|-------------7--7-7-77-9999----------------------5---5----|
C#|-----------------------------------------0--0-0----0---0--|

F#|------------------------------------------|
C#|------------------------------------------|
G#|---------------------------2--2--2-4--5---|
C#|-7-7--7-7---2--2-2--22-444----------------|

Pre Verse (1:06)

F#|---------------------------------------------|
C#|---------------------------------------------|
G#|-----------------------/12-------------------|
C#|--7------------------------------------------|

Verse (1:14)

F#|--------------------------------------------9-11-9------------------------------|
C#|-----------------------------------7-9-7--------------5--7--9-----9---------5---|
G#|-----7-9--77--7--9---------55--5-------------------------------------5--7-9-----|
C#|-7------------------9----9------------------------------------------------------|

Chorus (1:28)

F#|----------------------------------------------11-9------|
C#|---------------------------------------------------7-9--|
G#|---------------------------2--2--2-4--------------------|
C#|-7-7--7-7---2--2-2--22-444------------0--0-0------------|

F#|----------------------------------------------11-9------|
C#|---------------------------------------------------7-9--|
G#|---------------------------2--2--2-4--5--5-5------------|
C#|-7-7--7-7---2--2-2--22-444------------------------------|

F#|----------------------------------------------------------|
C#|-7-7--77-9-9----------------9-9--99-11--------------------|
G#|-------------7--7-7-77-9999----------------------5---5----|
C#|-----------------------------------------0--0-0----0---0--|

F#|------------------------------------------|
C#|------------------------------------------|
G#|---------------------------2--2--2-4--5---|
C#|-7-7--7-7---2--2-2--22-444----------------|

Bridge (1:58)

F#|------------------------------------------------------------------------|
C#|-------------------7-9-7--6--------6--7----------------/15--------------|
G#|-------4-----5---7------------9-----------------------------------------|
C#|-7---------------------------------------0------------------------------|

End Chorus (2:20)

F#|----------------------------------------------11-9------|
C#|---------------------------------------------------7-9--|
G#|---------------------------2--2--2-4--------------------|
C#|-7-7--7-7---2--2-2--22-444------------0--0-0------------|

F#|----------------------------------------------11-9------|
C#|---------------------------------------------------7-9--|
G#|---------------------------2--2--2-4--5--5-5------------|
C#|-7-7--7-7---2--2-2--22-444------------------------------|

F#|-----------------------------------------------|
C#|-7---------------------------------------------|
G#|---------7----------2--2--2-4---------5---5----|
C#|---7-777----2-22-44------------0--0-0---0---0--|

F#|-------------------------------------------||
C#|-------------------------------------------||
G#|-----------------------2222--2-4--5--------||
C#|-777--7-7---2-22-22-44------------0--------||



===============================================================================

comments
We did not receive enough feedback on this tab! Please rate:
print report bad tab
1 2 3 4 5
I want to post or [tab]
guest
You may want to rate the tab now too:
select rating
Please do not post tabs as comments. Select "correction" instead!