Oops, an error
Loading. Please wait.

This Isnt Goodbye Its Brb Bass Tab

751 views 1 this week
no commentswrite comment
1 2 3 4 5
please rate
add to favorites
launch autoscroll
font size
0
reset
guitar tuner
Tab Pro tools
  • play this tab
  • loop segment
  • change instrument
  • show fretboard
  • metronome
×
Best way to learn
"This Isnt Goodbye Its Brb"
Autoscroll
slow
fast
+/-
esc
set tempo
stop
Contributor
Tuning
D A D G B E
Song: This Isn't Goodbye, It's BRB
Artist: We Are The In Crowd
Album: Best Intentions
Bass Player: Mike Ferri
Tuning: D A D G

Tabbed By : posem21uk  


| /  slide up
| \  slide down
| h  hammer-on
| p  pull-off
| ~  vibrato
| +  harmonic
| x  Mute note
| <> Bend note

Intro (0:00)

G|---------------------------------------------------------------------------------|
D|---------------------------------------------------------------------------------|
A|-222----------------------------------------222----------------------------------|
D|-----000-222-555-5555--555-555-000-000-0000-----000-222-555-5555-5555-5555-0000--|

Verse (0:13)

G|----------------------------------------------------------------------------------------|
D|----------------------------------------------------------------------------------------|
A|-------------------------------5---------------------------------------------2222-2222--|
D|-0-0-0-0-------/55--5-5----00----0-----55--5-5-----55--555-77--777-4444-4444------------|

Pre-Chorus (0:32)

G|---------------------------------------|
D|---------------------------------------|
A|---------------------------------------|
D|-5-5-5-5--5-5-5-5--7777-7777-7\--------|

Chorus (0:38)

G|-----------------------------------------------------------------------------------|
D|-------------------------------------------------------------------------777-7777--|
A|-----------------------------------------------------------------------------------|
D|-0000-0000-0000-0000-5555-5555-5555-5555-2222-2222-2222-2222-555-555-555-----------|

Pre-Verse (0:50)

G|----------------------|
D|----------------------|
A|-2-2------------------|
D|-------5-5----0-------|

Verse (0:53)
                                                                      p h p
G|----------------------------------------------------------------------------|
D|----------------------5------------------------------------5-------5^4^5^4--|
A|------5----5-7----------5----5/7-5---------5----5-7----------5--------------|
D|-00-----0-------55--5-----5---------00--0----0-------55--5-----5-5----------|

G|---------------------------------------------------------------------------|
D|------------------------------------------------------------------------5--|
A|-------------------------------------------------------------3333-3333--3--|
D|-5555-5555-7777-9999-5555-5555-7777-0000-5555-5555-7777-9999---------------|

Chorus (1:17)

G|-----------------------------------------------------------------------------------|
D|-----------------------------------------------------------------------------------|
A|-----------------------------------------------------------------------------------|
D|-0000-0000-0000-0000-5555-5555-5555-5555-2222-2222-2222-2222-555-555-555-777-7744--|

G|-----------------------------------------------------------------------------------|
D|-------------------------------------------------------------------------777-7777--|
A|-----------------------------------------------------------------------------------|
D|-0000-0000-0000-0000-5555-5555-5555-5555-2222-2222-2222-2222-555-555-555-----------|

Bridge (1:41)

G|-----------------------------------------------------------------------------------------|
D|------------------------------------------------------------------------4-5--5--4-5-4-5--|
A|-2--2-0-2--2--0-2-0-----------------------2--2--0-2--2-2--<4>-2-0------------------------|
D|----------------------5--5--4-5--5--4-5----------------------------5--5------------------|

G|---------------------------------------------------------------------------------------|
D|---------------------------4-----------5-----------------------------------------------|
A|---------------------2-2-----2-0--------5----------------------------------------------|
D|-7777-7777-7777-0202-------------5555-5--5--2222-2222-4444-4444--5-5-5--------0--------|

Build-Up (2:15)

G|---------------------------------------------------------------------------------------|
D|---------5-5-5-5-------------------------------------------------555-555-555-777-7777--|
A|---------------------------------------------------------------------------------------|
D|-5-5-5-5---------0-0-0-0-0-0-0-0-5-5-5-5-5-5-5-5-2-2-2-2-2-2-2-2-----------------------|

End Chorus (2:30)

G|-----------------------------------------------------------------------------------|
D|-------------------------------------------------------------------------777-7777--|
A|-----------------------------------------------------------------------------------|
D|-0000-0000-0000-0000-5555-5555-5555-5555-2222-2222-4444-4444-555-555-555-----------|

Outro (2:42)

G|----------------------------------------------------------------------------------||
D|----------------------------------------------------------------------------------||
A|-222----------------------------------------222-----------------------------------||
D|-----000-222-555-5555--555-555-000-000-0000-----000-222-555-5555--5--5--0---------||


===============================================================================
comments
We did not receive enough feedback on this tab! Please rate:
print report bad tab
1 2 3 4 5
I want to post or [tab]
guest
You may want to rate the tab now too:
select rating
Please do not post tabs as comments. Select "correction" instead!