Oops, an error
Loading. Please wait.

Hanschen Klein Tab

version 2
version 2

Whole song

Interactive

2,064 views 1 this week
no commentswrite comment
1 2 3 4 5
3 more votes to show rating
add to favorites
launch autoscroll
font size
0
reset
how to read this tab
guitar tuner
Autoscroll
slow
fast
+/-
esc
set tempo
stop
Help us to improve Ultimate-Guitar.com Take our survey!
×
Author
Difficulty
Tuning
intermediate
C G C F A D
*- Palm Mute
Tp-Tremelo Pick
~-Let Ring


D-|------------------------------------------------------------------------|
A-|------------------------------------------------------------------------|
F-|------------------------------------------------------------------------|
C-|0~--------3~------7~-----5---5------------------------------------------|
G-|0~--------3~------7~-----5---5------------------------------------------|
C-|0~--------3~------7~-----5---5------------------------------------------|

D-|------------------------------------------------------------------------|
A-|------------------------------------------------------------------------|
F-|------------------------------------------------------------------------|
C-|------------------------------------------------------------------------|
G-|------10tp--8tp--7tp--8tp--5tp--------8tp--7tp--5tp--7tp--4tp-----------|
C-|0--0----------------------------3--3------------------------------------|

D-|------------------------------------------------------------------------|
A-|------------------------------------------------------------------------|
F-|------------------------------------------------------------------------|
C-|------------------------------------------------------------------------|
G-|0tp--5tp--4tp--5tp--7tp--5tp--4tp--5tp------------Repeat-4x-------------|
C-|------------------------------------------------------------------------|

D-|------------------------------------------------------------------------|
A-|------------------------------------------------------------------------|
F-|------------------------------------------------------------------------|
C-|7~-------0--0---------------0--0-----6--5--4--3--4--5--4------5--4--3---|
G-|7~-------0--0---------------0--0-----6--5--4--3--4--5--4------5--4--3---|
C-|7~-------0--0---------------0--0-----6--5--4--3--4--5--4------5--4--3---|
            *  *               *  *     *  *  *  *  *  *  *      *  *  *
D-|-------------------------------------------------------------------------|
A-|-------------------------------------------------------------------------|
F-|-------------------------------------------------------------------------|
C-|4--3--2-----3--2--1--1---------------------------------------------------|
G-|4--3--2-----3--2--1--1---Repeat-2x-At-Fast-Tempo---Then-Repeat-2x--------|Slower
C-|4--3--2-----3--2--1--1---------------------------------------------------|
   *  *  *     *  *  *  *
D-|------------------------------------------------------------------------|
A-|------------------------------------------------------------------------|
F-|------------------------------------------------------------------------|
C-|------------------------------------------------------------------------|
G-|------------------------------------------------------------------------|
C-|0tp--6tp--5tp--4tp--3tp--4tp--5tp--4tp--5tp--4tp--3tp--4tp--3tp---------|

D-|------------------------------------------------------------------------|
A-|------------------------------------------------------------------------|
F-|------------------------------------------------------------------------|
C-|------------------------------------------------------------------------|
G-|------------------------------------------------------------------------|
C-|2tp--3tp--2tp--1tp------------------------------------------------------|

D-|------------------------------------------------------------------------|
A-|------------------------------------------------------------------------|
F-|------------------------------------------------------------------------|
C-|0--0-----6--5--4--3--4--5--4------5--4--3-------------------------------|
G-|0--0-----6--5--4--3--4--5--4------5--4--3---Repeat-2x-------------------|
C-|0--0-----6--5--4--3--4--5--4------5--4--3-------------------------------|
   *  *     *  *  *  *  *  *  *      *  *  *
Suggest correction
Give kudos to tab author, rate the tab!
1 2 3 4 5
comments
print report bad tab
guest
You may want to rate the tab now too:
select rating
Wanna post a correction for this tab? Suggest correction