Oops, an error
Loading. Please wait.

Superfhn Bananendate tab

version 1
version 1

Whole song

Interactive

5,205 views 1 this week
4 commentsread comments
1 2 3 4 5
x 4
add to favorites
×
Save as Personal and add changes to this tab that will be seen only by you. Learn more ›
×
You can save this tab as Personal to edit and correct it or add notes. All changes will be seen only by you. Learn more »
launch autoscroll
font size
0
reset
how to read this tab
guitar tuner
edit
Autoscroll
slow
fast
+/-
esc
set tempo
stop

  This song is amazing...just like sex ;D
hope you enjoy it!!!
please rate and comment. :)





D|---------------------|
A|---8/10~~~-----------|
F|---------------------|
C|---------------------| try to pinch a harmonic
G|---------------------| on the 8th then slide it to the
C|---------------------| 10th







I DONT KNOW THE EXACT STRUMMING PATTERN KEEP THAT IN MIND
BUT THESE CHORDS ARE 100% ACCURATE...sorry for caps 

D|-------------------------------|
A|-------------------------------|
F|-------------------------------| x2
C|--0-------8-----10-------5-----|
G|--0-x6----8-x6--8-x6-----5-x6--|
C|--0-------8-----7--------5-----|





-----------------------------------------------------------------




Guitar 1
D|--------------------------|
A|--------------------------|
F|--------------------------| x3
C|--------------------------|
G|-------888877778888-------|
C|--0000--------------------|

Guitar 2
D|--------------------------------------|
A|--------------------------------------|
F|--------------------------------------| 
C|--------------------------------------| those are 12's and 10th's
G|-------121212121010101012121212-------|
C|--0000--------------------------------| comes in the 3rd time


those two set of bars repeat twice!


then:

Guitar 1
D|--------------------------|
A|--------------------------|
F|--------------------------| 
C|--------------------------|
G|-------888877775555-------|
C|--0000--------------------|



Guitar 1
D|----------------------------------|
A|----------------------------------|
F|----------------------------------| 
C|----------------------------------| 
G|-------12121212101010108888-------|
C|--0000----------------------------|








--------------------------------------------------------------------



then this

its pretty tricky so it will take you abit of practice to get it right

ps: let some of them ring!



D|----------------------------------|
A|----------------------------------|
F|----------------------------------| x3
C|-000-000-0-0--------000-000-0-000-|
G|-000-000-0-0-x2-----000-000-0-000-|
C|-000-000-0-0--------000-000-0-000-|
   ... ... . . ... ... . ...






-----------------------------------------------------------------------


Both Guitars
D|---------------------------------|
A|---------------------------------|
F|---------------------------------|
C|--0--------5-------8-------7-----|
G|--0-x10----5-x10---8x10----7-x10-|
C|--0--------5-------8-------7-----|







then a lil cool solo

Guitar 1
D|--------------20~-22-15~-17~-18~-13~--17-15-12~~-10~--|
A|--15~-17~-18~-----------------------------------------|
F|------------------------------------------------------| 
C|------------------------------------------------------|
G|------------------------------------------------------|
C|------------------------------------------------------|


Guitar 2
D|----------------------------------|
A|----------------------------------|
F|----------------------------------|
C|--0---------5------8--------7-----|
G|--0-x10-----5-x10--8x10-----7-x10-|
C|--0---------5------8--------7-----|







-------------------------------------------------------------------------


for this part i only have rhythm the lead is complicated
if anyone cares to help message me or comment me

D|-------------------------|
A|-------------------------|
F|-------------------------| x3
C|-000-000-0-000-000-0-000-|
G|-000-000-0-000-000-0-000-|
C|-000-000-0-000-000-0-000-|
   ... ... . ... ... . ...





--------------------------------------------------------------------------




Guitar 1
D|-------------------------------|
A|-------------------------------|
F|-------------------------------|
C|--/17-15-14h15p14~-12~-12/17---| x2
G|-------------------------------|
C|-------------------------------|


Guitar 2 (this part is all tremolo picked) 
D|-----------------20"--22"--|
A|--15"--17"--18"------------|
F|---------------------------|
C|---------------------------|
G|---------------------------|
C|---------------------------|






------------------------------------------------------------------------






then this ccomes up :



Both guitars
D|-----------------------------|
A|-----------------------------|
F|-----------------------------|
C|-----------000-000-000-000---| x2
G|-----------000-000-000-000---|
C|--0"--8"---000-000-000-000---|
             ... ... ... ...




Then right after that is this:



D|------------------|---------------|
A|------------------|---------------|
F|------------------|---------------|
C|--0~~--8~~--------|--10-----------|
G|--0~~--8~~--------|--10-x12-------|
C|--0~~--8~~--------|--10-----------|
.






---------------------------------------------------------------------------




Timing is very tricky on this part

D|---------------------------|
A|---------------------------|
F|---------------------------| x2
C|---------------------------|
G|---------------------------|
C|----0"--8"--10"------------|







---------------------------------------------------------------------------



really cool ending 



D|----------------------------------------------------------|
A|----------------------------------------------------------|
F|----------------------------------------------------------| 
C|----------------------------------------------------------|
G|-----------------------------------------------------5-7--|
C|----0-----0-3-5-7-8---10-8-7-5-3----8-7-5-3-2----5p0------|
Suggest correction
Creating personal tab
Creating personal tab
You can edit any tab online and save it as your Personal.

You can edit, replace or remove any tab part or add personal notes – all changes will be seen only by you.

Personal tabs can be accessed anytime from any device, even offline.
Learn more »
comments
print report bad tab
4 comments total. Showing first comments.
+1 reply
thaddäus 371 Oct 22, 2010 10:40 AM

nice work, but i think, their guitars are in drop A, because everysong of this album is in drop a. I also tried some time to figure this song out, but i was bored to tab out the last two parts xD in 0:52 you forgot the solo, that is not very loud. i think its played like this:

B|----------------------------|----------------------------|
F#|-------9-----8h-9--8h-9----|--------9-----8h-9--8h-9----|
D|--10------------------------|--10------------------------|
A|----------------------------|----------------------------|
E|-----8-----8----------------|-----8-----8----------------|
A|----------------------------|----------------------------|

----------------------------|----------------------------|
--------9-----8h-9--8h-9----|--------9-----8h-9--8h-9----|
----------------------------|----------------------------|
--11-8-----8----------------|--11-8-----8----------------|
----------------------------|----------------------------|
----------------------------|----------------------------|

----------------------------|----------------------------|
--------14----13----11------|-----14----13----11---------|
----------------------------|----------------------------|
--11-11----11----11----11---|--11----11----11----11-11---|
----------------------------|----------------------------|
----------------------------|----------------------------|

----------------------------|----------------------------|
--------9-----8h-9--8h-9----|--------9-----8h-9--8h-9----|
----------------------------|----------------------------|
--10-10M---10M--------------|--10-10M---10M--------------|
----------------------------|----------------------------|
----------------------------|----------------------------|

And for the part, that starts in 1:17, where you didn't find the solo tabs, i tabbed out:

B|----------------------------|
F#|---------------------------|
D|----------------------------|
A|----------------------------|
E|-----11h15h11h15h11h15h11h--|
A|--15------------------------|

----------------------------|----------------------------|
----------------------------|----------------------------|
----------------------------|----------------------------|
----------------------------|----------------------------|
--15h11h15h11----11h15h11---|-----11h16h11h16h11h16h11h--|
--------------15------------|--15------------------------|

----------------------------|----------------------------|
----------------------------|----------------------------|
----------------------------|----------------------------|
----------------------------|----------------------------|
--16h11h16h11h16h11h16h11---|-----11h15h11h15h11h15h11h--|
----------------------------|--13------------------------|

----------------------------|----------------------------|
----------------------------|----------------------------|
----------------------------|----------------------------|
----------------------------|----------------------------|
--15h11h15h11----11h15h11---|-----10h13h10h13h10h13h10h--|
--------------13------------|--13------------------------|

----------------------------|
----------------------------|
----------------------------|
----------------------------|
--13h10h13h10h13h10h13h10---|

I hope, you understand my tabs :D Have fun.

0 reply
wtfxsteven 204 Oct 22, 2010 04:37 PM

your right about the solo but wrong bout the tuning because wen i play along with the song but other than the tuning what you did is amazing thanks man ill update the tab give you full credit for your work :)

+1 reply
thaddäus 371 Oct 23, 2010 02:50 AM

And your tabs of the speed picking in 0:26 aren't 100% correct in your version. I'm pretty sure that they're played like this (in drop c):

Guitar I + II
----------------------------------------------------|
----------------------------------------------------|
----------------------------------------------------|
----------------------------------------------------|
--------------8--8--8--8--7--7--7--7--8--8--8--8----|
--0--0--0--0----------------------------------------|

Guitar I + II
----------------------------------------------------|
----------------------------------------------------|
----------------------------------------------------|
----------------------------------------------------|
--------------8--8--8--8--7--7--7--7--8--8--8--8----|
--8--8--8--8----------------------------------------|

Guitar I + II

----------------------------------------------------|
----------------------------------------------------|
----------------------------------------------------|
--------------7--7--7--7--5--5--5--5--7--7--7--7----|
----------------------------------------------------|
--3--3--3--3----------------------------------------|

Guitar I + II
----------------------------------------------------|
----------------------------------------------------|
----------------------------------------------------|
--------------7--7--7--7--5--5--5--5--3--3--3--3----|
--3--3--3--3----------------------------------------|
----------------------------------------------------|

Guitar I
----------------------------------------------------|
----------------------------------------------------|
----------------------------------------------------|
----------------------------------------------------|
--------------8--8--8--8--7--7--7--7--8--8--8--8----|
--0--0--0--0----------------------------------------|

Guitar II
----------------------------------------------------|
----------------------------------------------------|
----------------------------------------------------|
--------------7--7--7--7--5--5--5--5--7--7--7--7----|
----------------------------------------------------|
--0--0--0--0----------------------------------------|

GuitarI
----------------------------------------------------|
----------------------------------------------------|
----------------------------------------------------|
----------------------------------------------------|
--------------8--8--8--8--7--7--7--7--8--8--8--8----|
--8--8--8--8----------------------------------------|

Guitar II
----------------------------------------------------|
----------------------------------------------------|
----------------------------------------------------|
--------------7--7--7--7--5--5--5--5--7--7--7--7----|
--5--5--5--5----------------------------------------|
----------------------------------------------------|

Guitar I
----------------------------------------------------|
----------------------------------------------------|
----------------------------------------------------|
--------------7--7--7--7--5--5--5--5--7--7--7--7----|
----------------------------------------------------|
--3--3--3--3----------------------------------------|

Guitar II
----------------------------------------------------|
--------------6--6--6--6--5--5--5--5--6--6--6--6----|
----------------------------------------------------|
--3--3--3--3----------------------------------------|
----------------------------------------------------|
----------------------------------------------------|

Guitar I
----------------------------------------------------|
----------------------------------------------------|
----------------------------------------------------|
--------------7--7--7--7--5--5--5--5--3--3--3--3----|
--3--3--3--3----------------------------------------|
----------------------------------------------------|

Guitar II
----------------------------------------------------|
----------------------------------------------------|
----------------------------------------------------|
--------------10-10-10-10-8--8--8--8--7--7--7--7----|
--7--7--7--7----------------------------------------|
----------------------------------------------------|

guest
You may want to rate the tab now too:
select rating
Wanna post a correction for this tab? Suggest correction