Oops, an error
Loading. Please wait.

Fade Away tab

version 2
version 2

Whole song

2,028 views 1 this week
4 commentsread comments
1 2 3 4 5
x 5
add to favorites
×
Save as Personal and add changes to this tab that will be seen only by you. Learn more ›
×
You can save this tab as Personal to edit and correct it or add notes. All changes will be seen only by you. Learn more »
launch autoscroll
font size
0
reset
how to read this tab
guitar tuner
edit
Autoscroll
slow
fast
+/-
esc
set tempo
stop
INTRO

Electric 1+2

Eb|-----------------------|
Bb|-----------------------|
Gb|-----------------------|
Db|-9-9-0-9--9-9-0-9--5-4-|
Ab|-9-9-0-9--9-9-0-9--5-4-|
Db|-9-9-0-9--9-9-0-9--5-4-|

VERSE (part 1)

Electric 1+2

Eb|----------------------------------------------|
Bb|----------------------------------------------|
Gb|----------------------------------------------|
Db|-9-9-0-9---5-5-5-5--4----9-9-0-9---5-5-5/7--4-|
Ab|-9-9-0-9---5-5-5-5--4----9-9-0-9---5-5-5/7--4-|
Db|-9-9-0-9---5-5-5-5--4----9-9-0-9---5-5-5/7--4-|

VERSE (part 2)

Electric 1

Eb|-------14-----------14-17-12----|
Bb|-12-15----15--12-15----------15-|
Gb|--------------------------------|
Db|--------------------------------|
Ab|--------------------------------|
Db|--------------------------------|

Electric 2

Eb|----------------------------------------------|
Bb|----------------------------------------------|
Gb|----------------------------------------------|
Db|-9-9-0-9---5-5-5-5--4----9-9-0-9---5-5-5/7--4-|
Ab|-9-9-0-9---5-5-5-5--4----9-9-0-9---5-5-5/7--4-|
Db|-9-9-0-9---5-5-5-5--4----9-9-0-9---5-5-5/7--4-|

PRE-CHORUS

Electric 2
  (palm mute)
Eb|--------|
Bb|--------|
Gb|--------|
Db|-5-0-11-|
Ab|-5-0-11-|
Db|-5-0-11-|


CHORUS

Electric 1+2

Eb|--------------------------|
Bb|--------------------------|
Gb|--------------------------|
Db|-9-5-0-2-----9-5-7-2/7----|
Ab|-9-5-0-2-x2--9-5-7-2/7-x2-|
Db|-9-5-0-2-----9-5-7-2/7----|

INTRO

VERSE (part 1) 

No Playing Here

VERSE (part 2)

Electric 1

Eb|-------14-----------14-17-12----|
Bb|-12-15----15--12-15----------15-|
Gb|--------------------------------|
Db|--------------------------------|
Ab|--------------------------------|
Db|--------------------------------|

Electric 2

Eb|----------------------------------------------|
Bb|----------------------------------------------|
Gb|----------------------------------------------|
Db|-9-9-0-9---5-5-5-5--4----9-9-0-9---5-5-5/7--4-|
Ab|-9-9-0-9---5-5-5-5--4----9-9-0-9---5-5-5/7--4-|
Db|-9-9-0-9---5-5-5-5--4----9-9-0-9---5-5-5/7--4-|

PRE-CHORUS

Electric 2
  (palm mute)
Eb|------|
Bb|------|
Gb|------|
Db|-5-0--|
Ab|-5-0--|
Db|-5-0--|


CHORUS

PRE-CHORUS

BRIDGE

Electric 1+2

  (palm mute)
Eb|-----------------|
Bb|-----------------|
Gb|-----------------|
Db|-2-5-0-11--2-5-7-|
Ab|-2-5-0-11--2-5-7-|
Db|-2-5-0-11--2-5-7-|

PRE-CHORUS

CHORUS

INTRO

            
            
Suggest correction
Creating personal tab
Creating personal tab
You can edit any tab online and save it as your Personal.

You can edit, replace or remove any tab part or add personal notes – all changes will be seen only by you.

Personal tabs can be accessed anytime from any device, even offline.
Learn more »
comments
print report bad tab
4 comments total. Showing first comments.
0 reply
Audible Warfare 806 Oct 28, 2013 07:09 PM

0 reply
catalinamylove 10 Feb 10, 2015 09:53 AM

didn't like this contribution

guest
You may want to rate the tab now too:
select rating
Wanna post a correction for this tab? Suggest correction