Oops, an error
Loading. Please wait.

Glad You Came tab

version 4
version 4

Whole song

148 views 6 this week
no commentswrite comment
1 2 3 4 5
x 3
add to favorites
×
Save as Personal and add changes to this tab that will be seen only by you. Learn more ›
×
You can save this tab as Personal to edit and correct it or add notes. All changes will be seen only by you. Learn more »
launch autoscroll
font size
0
reset
how to read this tab
guitar tuner
edit
Autoscroll
slow
fast
+/-
esc
set tempo
stop
About this tab version
I made a youtube cover for you to use as a reference. Was this info helpful? Yes No
Hi guys! For you to figure out the rhythm even further I have made a cover of this song! 
Here is the link!
https://www.youtube.com/watch?v=7oC3hWHXG2Q
OR
https://www.youtube.com/channel/UCmL4hyAo9ve0KE7NNnwnAyQ
Cover only available on PC
You can change the speed of my video and see my picking hand
Don't forget to subscribe, comment and like!
email: alafiqhaqiqi@gmail.com / roseycindey4124@gmail.com
email me if you want to ask any questions!
follow me on instagram: afiqq6661(Personal Life) AND Roseycindey(Guitar)
youtube channel: https://www.youtube.com/channel/UCmL4hyAo9ve0KE7NNnwnAyQ



[Pre Chorus]     
E |----------------------------------------------------------------------------------------------------|
B |----------------------------------------------------------------------------------------------------|
G |----------------------------------------------------------------------------------------------------|
D |---------------------------------------------------------------------------------------<5>----------|
A |---1----1--1--1---1---3-----5--5-5-5--5--5--5-----1----1--1--1---1---3-----5--5-5-5--5-------8-8-8--|
D |---1----1--1--1---1---3-----5--5-5-5--5--5--5-----1----1--1--1---1---3-----5--5-5-5--5-------8-8-8--|
      .    .  .                   . . .     .        .    .  .                   . .
    
E |------------------------------------------------------------------------------|
B |------------------------------------------------------------------------------|
G |------------------------------------------------------------------------------|
D |------------------------------------------------------------------------------|
A |---1----1--1--1---1---3-----5--5-5-5--5--5--5-----1----1--1--1--1---1---3-----|
D |---1----1--1--1---1---3-----5--5-5-5--5--5--5-----1----1--1--1--1---1---3-----|
      .    .  .                   . . .     .        .    .  .                   
    
[Chorus]
E |----------------------------------------------------------------------------------------------------------|
B |----------------------------------------------------------------------------------------------------------|
G |----------------------------------------------------------------------------------------------------------|
D |--------5-----------------------------5----------------------------5-----------------3------------5-------|
A |-----------8---5-5-5---3--1-------------8---5-5-5---3--5-------------8---5-5-5---3-5--5--------------8--3-|
D |-5-5-5-------------------------5-5-5------------------------5-5-5--------------------------5-5-5----------|

[Pre-verse]
E |----------------------------------------------------------X----------------------------|
B |-----------------------------------------------------------X---------------------------|
G |------------------------------------------------------------X--------------------------|
D |-------------------------------------------------------------X-------------------------|
A |-1--1-1---1-1-1-----5--5---5---5--5-----5--------1--1-1-------X------------------------|
D |-1--1-1---1-1-1-----5--5-5-5-5----5--8--5--3-----1--1-1------------5-5-5-5-5-5-7-------|
    .  . .   . .       .  .   .      .     .        .  . .                        ^
                                                                                 (bend 1/4)
 
E |----------15--13-----------------------------------------------X--------Whammy down and release slowly--|
B |------------------15--------------------------------------------X-------Whammy down and release slowly--|
G |-----------------------------------------------------------------X------Whammy down and release slowly--|
D |------------------------------------------------------------------X-----Whammy down and release slowly--|
A |-------------------------5--5---5---5--5-----5--------1--1-1-------X----Whammy down and release slowly--|
D |--1-1-1------------------5--5-5-5-5----5--8--5--3-----1--1-1------------Whammy down and release slowly--|
                            .  .   .      .     .        .  . .

                                                                                 OR YOU CAN PLAY
                                                                                       THIS
                                                                          ----------------------------------|
                                                                          ----------------------------------|
                                                                          ----------------------------------|
                                                                          ----------------------------------|
                                                                          ----------------------------------|
                                                                          --5-5-5-5-5-5-12-12-10-10-8-8-5-5-|

[Verse 2]
E |---------------------------------------------------------------------------------------------------------|
B |---------------------------------------------------------------------------------------------------------|
G |---------------------------------------------------------------------------------------------------------|
D |---------------------------------------------------------------------------------------------------------|
A |--1-------------5-------------1-------------5-------8-------1-------------5-------------1-------------5--|
D |--1-------------5-------------1-------------5-------8-------1-------------5-------------1-------------5--|

[Pre Chorus]
E |------------------------------------------------------------------------------------|
B |------------------------------------------------------------------------------------|
G |------------------------------------------------------------------------------------|
D |------------------------------------------------------------------------------------|
A |-1--1-1---1-1-1-----5--5-5--5-5--5--5-5----1--1-1---1-1-1-----5-5-5-5-5--5--5--8----|
D |-1--1-1---1-1-1-----5--5-5--5-5--5--5-5----1--1-1---1-1-1-----5-5-5-5-5--5--5--8----|
    .  . .   . .       .  . .  . .  .  . .    .  . .   . .       . . . .    .  .        

E |---------------------------------------------------------------------|
B |---------------------------------------------------------------------|
G |---------------------------------------------------------------------|
D |---------------------------------------------------------------------|
A |-1--1-1---1-1-1-----5--5-5--5-5--5--5-5----1--1-1---1-1-1-----1-3----|
D |-1--1-1---1-1-1-----5--5-5--5-5--5--5-5----1--1-1---1-1-1-----1-3----|
    .  . .   . .       .  . .  . .  .  . .    .  . .   . .           

[Chorus]
E |----------------------------------------------------------------------------------------------------------|
B |----------------------------------------------------------------------------------------------------------|
G |----------------------------------------------------------------------------------------------------------|
D |--------5-----------------------------5----------------------------5-----------------3------------5-------|
A |-----------8---5-5-5---3--1-------------8---5-5-5---3--5-------------8---5-5-5---3-5--5--------------8--3-|
D |-5-5-5-------------------------5-5-5------------------------5-5-5--------------------------5-5-5----------|

[Outro]
E |----------------------------------------------------------X----------------------------|
B |-----------------------------------------------------------X---------------------------|
G |------------------------------------------------------------X--------------------------|
D |-------------------------------------------------------------X-------------------------|
A |-1--1-1---1-1-1-----5--5---5---5--5-----5--------1--1-1-------X------------------------|
D |-1--1-1---1-1-1-----5--5-5-5-5----5--8--5--3-----1--1-1------------5-5-5-5-5-5-7-------|
    .  . .   . .       .  .   .      .     .        .  . .                        ^
                                                                                 (bend 1/4)
 
E |---------------13--10--------------------------------------------X--------Whammy down and release slowly--|
B |-----------------------15-----------------------------------------X-------Whammy down and release slowly--|
G |-------------------------------------------------------------------X------Whammy down and release slowly--|
D |--------------------------------------------------------------------X-----Whammy down and release slowly--|
A |--1--1-1--1-1----------------5--5---5---5--5-----5--------1--1-1-----X----Whammy down and release slowly--|
D |--1--1-1--1-1----------------5--5-5-5-5----5--8--5--3-----1--1-1----------Whammy down and release slowly--|
     .  . .  . .                .  .   .      .     .        .  . .

                                                                                 OR YOU CAN PLAY
                                                                                       THIS
                                                                          ----------------------------------|
                                                                          ----------------------------------|
                                                                          ----------------------------------|
                                                                          ----------------------------------|
                                                                          ----------------------------------|
                                                                          --5-5-5-5-5-5-12-12-10-10-8-8-5-5-|

E |--------------------------------------------------------------------------------------------------|
B |--------------------------------------------------------------------------------------------------|
G |--------------------------------------------------------------------------------------------------|
D |--------------------------------------------------------------------------------------------------|
A |--1--1-1---1-1-1------------5--5-5-5-5-5--5--5---5--5------1--1-1--1-1-1--------------------------|
D |--1--1-1---1-1-1------------5--5-5-5-5-5--5--5---5--5------1--1-1--1-1-1-----5-5-5-5-5-5-7--------|
     .  . .   . .              .  . . . . .  .  .   .  .      .  . .  . .                   ^
                                                                                            (bend 1/4)  

E |----------15--13-----------------------------------------------------------------------------|
B |------------------15-------------------------------------------------------------------------|
G |---------------------------------------------------------------------------------------------|
D |---------------------------------------------------------------------------------------------|
A |---------------------------5--5-5-5-5-5--5--5---5--5-------1--1-1---1-1-1-----1-3--3-3-3-3---| 
D |--1-1-1--------------------5--5-5-5-5-5--5--5---5--5-------1--1-1---1-1-1-----1-3--3-3-3-3---|
                              .  . . . . .  .  .   .  .       .  . .   . .

**********************************

Legend

. - palm mute
<> - natural harmonics
^ - bend

**********************************
||||||||||||||||||||||||||||||||||
Suggest correction
Creating personal tab
Creating personal tab
You can edit any tab online and save it as your Personal.

You can edit, replace or remove any tab part or add personal notes – all changes will be seen only by you.

Personal tabs can be accessed anytime from any device, even offline.
Learn more »
Give kudos to tab author, rate the tab!
1 2 3 4 5
comments
print report bad tab
guest
You may want to rate the tab now too:
select rating
Wanna post a correction for this tab? Suggest correction