Oops, an error
Loading. Please wait.

Never Let Me Go Tab

6,427 views 21 this week
1 commentread comment
1 2 3 4 5
excellent!
x 5
add to favorites
launch autoscroll
font size
0
reset
how to read this tab
guitar tuner
Tab Pro tools
  • play this tab
  • loop segment
  • change instrument
  • show fretboard
  • metronome
Autoscroll
slow
fast
+/-
esc
set tempo
stop
Contributor
Hey guys! This is my first tab, please give me feedback and im open to any correction
suggestions! I give TheThespiansLament8 credit for the interlude part, he made it
 i tabbed it! Like i said, PLEASE FEEDBACK! THANKS AND ENJOY! C:



Intro(0:00-0:06)
C  |------------------------------------------------------------------------------|
G  |------------------------------------------------------------------------------|
Eb |------------------------------------------------------------------------------|
Bb |----7---7---7---7-----7---7---7-7---------------------------------------------|
F  |-999-999-999-999--777--777-777-7----------------------------------------------|
Bb |------------------------------------------------------------------------------|
   
    
    Lead(0:07-0:19)
C  |------------------------------------------------------------------------------|
G  |-----111115151313-----111115151313-----1012121210---10121212(10)1st-measure-only--|
Eb |-1414-------------1414--------------999----------999--------------------------|x2
Bb |------------------------------------------------------------------------------|
F  |------------------------------------------------------------------------------|
Bb |------------------------------------------------------------------------------|
    

    Rhythm(0:07-0:19)
C  |------------------------------------------------------------------------------|
G  |-------------\----------------------------------------------------------------|
Eb |--------------\---------------------------------------------------------------|
Bb |-4-----2-------(x2)-----------------------------------------------------------|
F  |-4-x16-2-x16--/---------------------------------------------------------------|
Bb |-4-----2-----/----------------------------------------------------------------|

    
    (0:20-0:32)
C  |------------------------------------------------------------------------------|
G  |-10~~/17-12~-14/17-12-14------------------------------------------------------|
Eb |------------------------------------------------------------------------------|
Bb |------------------------------------------------------------------------------|
F  |------------------------------------------------------------------------------|
Bb |------------------------------------------------------------------------------|


    (0:32-0:50)
C  |------------------------------------------------------------------------------|
G  |------------------------------------------------------------------------------|
Eb |------------------------------------------------------------------------------|
Bb |-444---444-----7-7-7-222---222----2-2-2-----0~~-0~~-0~~-----------------------|
F  |-444---444-----7-7-7-222---222----2-2-2-x2--0~~-0~~-0~~-----------------------|
Bb |-444-4-444-7---7-7-7-222-2-222-2--2-2-2-----0~~-0~~-0~~-----------------------|
     ...   ...     . . . ...   ...    . . .

    Lead(0:51-1:17)
C  |------------------------------------------------------------------------------|
G  |-----111115151313-----111115151313-----1012121210---1012121210----------------|
Eb |-1414-------------1414--------------999----------999--------------------------|x4
Bb |------------------------------------------------------------------------------|
F  |------------------------------------------------------------------------------|
Bb |------------------------------------------------------------------------------|



    Rhythm(0:51-1:23)
C  |------------------------------------------------------------------------------|
G  |-------------\----------------------------------------------------------------|
Eb |--------------\---------------------------------------------------------------|
Bb |-4-----2-------(x4)---44-4-44444-4-44444222-222-22-222------------------------|
F  |-4-x16-2-x16--/-------44-4-44444-4-44444222-222-22-222------------------------|
Bb |-4-----2-----/--------44-4-44444-4-44444222-222-22-222------------------------|


   
   (1:24-1:36)
C  |------------------------------------------------------------------------------|
G  |-10~~/17-12~-14/17-12-14------------------------------------------------------|
Eb |------------------------------------------------------------------------------|
Bb |------------------------------------------------------------------------------|
F  |------------------------------------------------------------------------------|
Bb |------------------------------------------------------------------------------|
   
   
    (1:36-1:49)
C  |------------------------------------------------------------------------------|
G  |------------------------------------------------------------------------------|
Eb |------------------------------------------------------------------------------|
Bb |------------------------------------------------------------------0~~---------|
F  |------------------------------------------------------------------0~~---------|
Bb |-4-4-4-4-4-4-4-4-7-7-7-7-7-7-7-7-2-2-2-2-2-2-2-2-2-2-2-2-0-0-x2---0~~---------|


   Lead (1:52-2:17)
C  |------------------------------------------------------------------------------|
G  |-----111115151313-----111115151313-----1012121210---1012121210----------------|
Eb |-1414-------------1414--------------999----------999--------------------------|x4
Bb |------------------------------------------------------------------------------|
F  |------------------------------------------------------------------------------|
Bb |------------------------------------------------------------------------------|


   Rhythm (1:52-2:17)
C  |------------------------------------------------------------------------------|
G  |-------------\----------------------------------------------------------------|
Eb |--------------\---------------------------------------------------------------|
Bb |-4-----2-------(x2)---44-4-44444-4-44444222-222-22-222------------------------|
F  |-4-x16-2-x16--/-------44-4-44444-4-44444222-222-22-222-x2---------------------|
Bb |-4-----2-----/--------44-4-44444-4-44444222-222-22-222------------------------|


   (2:17-2:25)
C  |-1313131313131313-------------------------------------------------------------|
G  |------------------------------------------------------------------------------|
Eb |------------------------------------------------------------------------------|
Bb |-------------------4~--4~--4~-4~----------------------------------------------|
F  |-------------------4~--4~--4~-4~-4-4-4-4--------------------------------------|
Bb |-------------------4~--4~--4~-4~-4-4-4-4-7p4-5p4------------------------------|
                                     . . . . . . . .

   (2:27-2:53)
C  |--------------------------------------------------------------------------------|
G  |--------------------------------------------------------------------------------|
Eb |--------------------------------------------------------------------------------|
Bb |-----------------------------------------------------------------------0-0-0-0~-|
F  |-444-4--444-4--4-4-4-444-4-444-4--4-4-4-222-2--222-2--2-2-222-2-222-x2-0-0-0-0~-|
Bb |-444-4--444-4--4-4-4-444-4-444-4--4-4-4-222-2--222-2--2-2-222-2-222----0-0-0-0~-|
     ... .  ... .  . . . ... . ... .  . . . ... .  ... .  . . ... . ...
   

    Lead (2:56-3:06)                  
C  |----------------------------------------------------------------------------------------|
G  |----1012121210---1012121210-----111115151313----111115151313----1012121210---1012121210-|
Eb |-999----------999-----------1414------------1414-------------999----------999-----------|
Bb |----------------------------------------------------------------------------------------|
F  |----------------------------------------------------------------------------------------|
Bb |----------------------------------------------------------------------------------------|


   
    Rhythm (2:56-3:36)
C  |------------------------------------------------------------------------------|
G  |------------------------------------------------------------------------------|
Eb |------------------------------------------------------------------------------|
Bb |-2----4----2----------44-4-44444-4-44444222-222-22-222------------------------|
F  |-2x16-4x16-2x16-------44-4-44444-4-44444222-222-22-222-x4---------------------|
Bb |-2----4----2----------44-4-44444-4-44444222-222-22-222------------------------|
comments
print report bad tab
1 comment total.
0 reply
mmylroilamont wrote on February 13 2014, 11:42 am, edited at 12:29 pm

thanks, this is great

I want to post or [tab]
guest
You may want to rate the tab now too:
select rating
Please do not post tabs as comments. Select "correction" instead!