Oops, an error
Loading. Please wait.

Here Comes The Sun bass

by We Five
58 views 3 this week
no commentswrite comment
1 2 3 4 5
3 more votes to show rating
add to favorites
×
Save as Personal and add changes to this tab that will be seen only by you. Learn more ›
×
You can save this tab as Personal to edit and correct it or add notes. All changes will be seen only by you. Learn more »
launch autoscroll
font size
0
reset
guitar tuner
edit
Autoscroll
slow
fast
+/-
esc
set tempo
stop
Author
Difficulty
Tabbed by: 6METAL6BASSIST6
E-mail: petergriffinav@gmail.com

Tuning: EADG

G|----------------------------------------------------------------|
D|----------------------------------------------------------------|
A|3-----------2---------------------------------------------------|
E|------------------------5-------------------------------12\-----|

G|----------------------------------------------------------------|.
D|----------------------------------------------------------------|.
A|------------------------------------------------------------5---|.
E|5-----------5---5-----------5---5-----------5---5---------------|.
                                                                   . x2
G|----------------------------------------------------------------|.
D|----------------------------------------------------------------|.
A|5-----------5---5-----------7---7-----------7---7---------------|.
E|------------------------------------------------------------5---|.

G|----------------------------------------------------------------|
D|----------------------------------------------------------------|
A|------------------------------------------------------------5---|
E|5-----------5---5-----------5---5-------------------------------|

G|----------------------------------------------------------------|
D|----------------------------------------------------------------|
A|------------5---5-----------------------------------------------|
E|----------------------------7---7-----------7---7---7-------7---|

G|----------------------------------------------------------------|
D|----------------------------------------------------------------|
A|--------------------------------5---4---------------4-------5---|
E|5-----------5---5---5-------5---------------7-------------------|

G|--------------------------------|
D|--------------------------------|
A|------------------------7-------|
E|--------------------------------|

0:30

G|----------------------------------------------------------------|.
D|----------------------------------------------------------------|.
A|------------------------------------------------------------5---|.
E|5-----------5---5-----------5---5-----------5---5---------------|.
                                                                   . x2
G|----------------------------------------------------------------|.
D|----------------------------------------------------------------|.
A|5-----------5---5-----------7---7-----------7---7---------------|.
E|------------------------------------------------------------5---|.

G|----------------------------------------------------------------|
D|----------------------------------------------------------------|
A|------------------------------------------------------------5---|
E|5-----------5---5-----------5---5-------------------------------|

G|----------------------------------------------------------------|
D|----------------------------------------------------------------|
A|------------5---5-----------------------------------------------|
E|----------------------------7---7-----------7---7-----------7---|

G|--------------------------------|
D|--------------------------------|
A|--------------------------------|
E|5-----------5---5-----------5---|

0:52

G|----------------------------------------------------------------|
D|----------------------------------------------------------------| x2
A|5-----------4---------------------------------------------------|
E|------------------------7-------5-----------5---5-----------5---|

G|----------------------------------------------------------------|
D|----------------------------------------------------------------|
A|5---4---------------4---5---------------------------------------|
E|------------7---------------------------------------------------|

1:02

G|----------------------------------------------------------------|
D|----------------------------------------------------------------|
A|3-----------2---------------------------------------------------|
E|------------------------5-------------------------------12\-----|

G|----------------------------------------------------------------|
D|----------------------------------------------------------------|
A|----------------------------7---7-----------7---7---7---7-\-----|
E|5-----------5---5-----------------------------------------------|

G|----------------------------------------------------------------|
D|----------------------------------------------------------------|
A|3-----------2-------------------------------------------7-------|
E|------------------------5---------------------------------------|

G|------------------------------------------------------------------------|
D|------------------------------------------------------------------------|
A|------------------------------------7---7-----------7---7---7---7-\-----|
E|5-------------------5---------------------------------------------------|

G|----------------------------------------------------------------|
D|----------------------------------------------------------------|
A|3-----------2-----------5---------------------------------------|
E|----------------------------------------------------------------|

G|----------------------------------------|
D|--------------------------------7-------|
A|----------------------------------------|
E|------------------------------------5---|

1:23

G|----------------------------------------------------------------|
D|----------------------------------------------------------------|
A|--------------------------------------------5---5-----------5---|
E|5-----------5---5---5-------5---5-------------------------------|

G|------------------------------------------------|
D|------------------------------------------------|
A|5-----------7---7-----------7---7---7-----------|
E|--------------------------------------------5---|

G|----------------------------------------------------------------|
D|----------------------------------------------------------------|
A|------------------------------------------------------------5---|
E|5-----------5---5-----------5---5-----------5---5---------------|

G|----------------------------------------------------------------|
D|----------------------------------------------------------------|
A|5-----------5---5-----------7---7-----------7---7---------------|
E|------------------------------------------------------------5---|

G|----------------------------------------------------------------|
D|----------------------------------------------------------------|
A|------------------------------------------------------------5---|
E|5-----------5---5-----------5---5-------------------------------|

G|----------------------------------------------------------------|
D|----------------------------------------------------------------|
A|------------5---5-----------------------------------------------|
E|----------------------------7---7-----------7---7---7-------7---|

G|--------------------------------|
D|--------------------------------|
A|--------------------------------|
E|5-----------5---5-----------5---|

1:45

G|----------------------------------------------------------------|
D|----------------------------------------------------------------| x2
A|5-----------4---------------------------------------------------|
E|------------------------7-------5-----------5---5-----------5---|

G|----------------------------------------------------------------|
D|----------------------------------------------------------------|
A|5---4---------------4---5---------------------------------------|
E|------------7---------------------------------------------------|

1:55

G|------------------------------------------------------------------------|
D|------------------------------------------------------------------------|
A|3-----------2-----------------------------------------------------------|
E|------------------------5---------------------------------------12\-----|

G|----------------------------------------------------------------|
D|----------------------------------------------------------------|
A|--------------------------------3-----------2-------------------|
E|5-----------5---5-----------5---------------------------5-------|

G|----------------------------------------------------------------|
D|----------------------------------------------------------------|
A|----------------------------------------------------------------|
E|--------------------------------12\-----5-----------5---5-------|

G|----------------------------------------------------------------|
D|----------------------------------------------------------------|
A|--------3-----------2-----------5-------------------------------|
E|----5-----------------------------------------------------------|

G|--------------------------------|
D|--------------------------------|
A|--------------------------------|
E|--------------------------------|

2:11

G|----------------------------------------------------------------|
D|----------------------------------------------------------------| x3
A|------------------------4---5-------5-------7-------5-------7---|
E|5-----------5---5---7-------------------------------------------|

G|----------------------------------------------------------------|
D|----------------------------------------------------------------|
A|------------------------4---5-------5-------7-------5-----------|
E|5-----------5---5---7-------------------------------------------|

G|----------------------------------------------------------------|
D|----------------------------------------------------------------|
A|3-----------2-----------5---------------------------------------|
E|----------------------------------------------------------------|

            
            
Suggest correction
Creating personal tab
Creating personal tab
You can edit any tab online and save it as your Personal.

You can edit, replace or remove any tab part or add personal notes – all changes will be seen only by you.

Personal tabs can be accessed anytime from any device, even offline.
Learn more »
Give kudos to tab author, rate the tab!
1 2 3 4 5
comments
print report bad tab
guest
You may want to rate the tab now too:
select rating
Wanna post a correction for this tab? Suggest correction