Oops, an error
Loading. Please wait.

Divisive bass

853 views 1 this week
1 commentread comment
1 2 3 4 5
2 more votes to show rating
add to favorites
×
Save as Personal and add changes to this tab that will be seen only by you. Learn more ›
×
You can save this tab as Personal to edit and correct it or add notes. All changes will be seen only by you. Learn more »
launch autoscroll
font size
0
reset
guitar tuner
edit
Autoscroll
slow
fast
+/-
esc
set tempo
stop
Author
Difficulty
This band are ace!!! www.wehaveband.com check it out mofos :)

Intro
G|-----------------1---------------------------------------1---|
D|-------2-4-----4---2------------------2-44-2-44-2-44-2-4---2-|
A|4--------------------44-2-44-2-44-2-4------------------------|
E|-------------------------------------------------------------|

Verse 1
G|--------------------------------------|
D|--------------------------------------|
A|44-2-4--2-44-2-4-2------------------2-|
E|-------------------22-0-2--0-22-0-2---|X2

G|------------------------------------1---|
D|-----------------2-44-2-44-2-44-2-4---2-|
A|44-2-44-2-44-2-4------------------------|
E|----------------------------------------|x2

Chorus
G|-----------------3-------------------1----------------------------------------1---|
D|66-4-66-4-66-4-6--4--44-2-44-2-44-2-4-2------------------1--44-2-44-2-44-2-4---2-|
A|----------------------------------------44-2-44-2-44-2-4--2-----------------------|
E|-----------------------------------------------------------------------------------|

Verse 2 - 11 not 2 1s, x means mute note
G|--------------------------------------------|
D|------x11\--------x11\----------------------|
A|44///-------44///-------------x9\-----------|
E|------------------------22///------22-0-2-2-|

G|---------------------------x11\---------1---|
D|------x11\-------x11\-44///------44-2-4---2-|
A|44///------44///----------------------------|
E|--------------------------------------------|

"We're all..divisive" - 1s, not 11s
G|----------------------------|
D|----------------------------|
A|22----22---2-4-11-----11----|
E|----------------------------|

Chorus 2
G|------------------------------------1---|
D|-----------------2-44-2-44-2-44-2-4---2-|
A|44-2-44-2-44-2-4------------------------|
E|----------------------------------------|X2

Break is same as Chorus 2

Bridge
G|---------------------------------|
D|---------------------------------|
A|44-2-4--44-2-4-2-----------------|
E|-----------------22-0-2--22-0----|x2

Verse 3 is the same as Chorus 2

"We're all divisive" part

Chorus 2

Chorus 1



            
            
Suggest correction
Creating personal tab
Creating personal tab
You can edit any tab online and save it as your Personal.

You can edit, replace or remove any tab part or add personal notes – all changes will be seen only by you.

Personal tabs can be accessed anytime from any device, even offline.
Learn more »
Give kudos to tab author, rate the tab!
1 2 3 4 5
comments
print report bad tab
1 comment total.
0 reply
jpfleming 190 Apr 24, 2013 01:20 AM

Great tab, awesome band!

guest
You may want to rate the tab now too:
select rating
Wanna post a correction for this tab? Suggest correction