Oops, an error
Loading. Please wait.

Silence Tab

version 1
version 1

Whole song

3,475 views 3 this week
3 commentsread comments
1 2 3 4 5
x 5
add to favorites
launch autoscroll
font size
0
reset
how to read this tab
guitar tuner
Autoscroll
slow
fast
+/-
esc
set tempo
stop
Help us to improve Ultimate-Guitar.com Take our survey!
×
Author
We Invented Paris – Silence

Tuning: Standard
Style: Fingerpicking


Intro / Verse 1:
|-----------------------------------------------------------------------|
|-5-----5---3----3---8-----8---7-3--5-----5---3-----3---8-----8---10-12-|
|---0-----0---0----0---0-----0--------0-----0---0-----0---0-----0-------|
|-----------------------------------------------------------------------|
|-3---3-----2---2----7---7-----5-2--3---3-----2---2-----7---7-----9--10-|
|-----------------------------------------------------------------------|

Standing here, watching this candle dying. In front of you all we need is silence


Chorus
|--------------------------------------------------------------------------------|
|-7-----7---7----7---5-----5---5-----5---8-----8---8-----8---7-----7---7-----7---|
|---0-----0---0----0---0-----0---0-----0---0-----0---0-----0---0-----0---0-----0-|
|--------------------------------------------------------------------------------|
|-5---5-----5---5----3---3-----3---3-----7---7-----7---7-----5---5-----5---5-----|
|--------------------------------------------------------------------------------|

Oh, You showed your face
Oh, You showed grace right here



Interlude / Verse 2:
|-----------------------------------------------------------------------|
|-5-----5---3----3---8-----8---7-3--5-----5---3-----3---8-----8---10-12-|
|---0-----0---0----0---0-----0--------0-----0---0-----0---0-----0-------|
|-----------------------------------------------------------------------|
|-3---3-----2---2----7---7-----5-2--3---3-----2---2-----7---7-----9--10-|
|-----------------------------------------------------------------------|

Standing here, watching this hour fading. In front of you all we need is silence.

Chorus
|--------------------------------------------------------------------------------|
|-7-----7---7----7---5-----5---5-----5---8-----8---8-----8---7-----7---7-----7---|
|---0-----0---0----0---0-----0---0-----0---0-----0---0-----0---0-----0---0-----0-|
|--------------------------------------------------------------------------------|
|-5---5-----5---5----3---3-----3---3-----7---7-----7---7-----5---5-----5---5-----|
|--------------------------------------------------------------------------------|

Oh, You showed your face
Oh, You showed grace
Oh, You showed your face
Oh, You showed grace




Bridge
|------------------------------------------------------------------|
|-8--7--3--5---8--7--3--1---8--10-12--13---8--7--3--5---8--7--3--5-|
|------------------------------------------------------------------|
|------------------------------------------------------------------|
|-7--5--2--3---7--5--2--0---7--9--10--12---7--5--2--3---7--5--2--3-|
|------------------------------------------------------------------|

Have your way, have your way, have your way, have your way, have your way, right here


Outro
|-----------------------------------------------------------------------|
|-5-----5---3----3---8-----8---7-3--5-----5---3-----3---8-----8---10-12-|
|---0-----0---0----0---0-----0--------0-----0---0-----0---0-----0-------|
|-----------------------------------------------------------------------|
|-3---3-----2---2----7---7-----5-2--3---3-----2---2-----7---7-----9--10-|
|-----------------------------------------------------------------------|

We Invented Paris
Official Website: http://www.weinventedparis.com/
Suggest correction
comments
print report bad tab
3 comments total.
0 reply
Warcrash 58 Apr 28, 2014 07:41 PM

I think the rythm of th basic figure is wrong. The last pick on the G string in every figure is too much. It's just:
e|------------------|
B|-5-----5--3-----3-|
G|---0--------0-----|
D|------------------|
A|-3---3----2---2---|
E|------------------|

0 reply
Warcrash 58 Apr 28, 2014 07:50 PM

I think the notes of the figure next-to-last in the bridge isn't wright. I would change it from
|---| |---|
|-5-| |-1-|
|---| |---|
|---| to |---|
|-3-| |-0-|
|---| |---|

And the first two figures are played twice. Once before the text is beginning.

So the bridge would look like this:
|-------------------------|
|-8--7--3--5---8--7--3--1-|
|-------------------------|
|-------------------------|
|-7--5--2--3---7--5--2--0-|
|-------------------------|

|------------------------------------------------------------------|
|-8--7--3--5---8--7--3--1---8--10-12--13---8--7--3--1---8--7--3--5-|
|------------------------------------------------------------------|
|------------------------------------------------------------------|
|-7--5--2--3---7--5--2--0---7--9--10--12---7--5--2--0---7--5--2--3-|
|------------------------------------------------------------------|
Have your way, have your way, have your way, have your way, have your way, right here

0 reply
bunterhund 62 Jun 27, 2014 04:13 PM

tabs are based on the youtube clip from tv noir and i'm pretty sure they're correct (at least for this version, even with the g string, though, admittedly its not picked as hard as the others..maybe..) :)

having rewatched the clip now I realized, in the chorus (at least at some points) there's something like
|-------------------------------------------- ------|
|-7-----7---7----7---5-----5---5-5--8-----8-- -7-7--|
|---0-----0---0----0---0-----0--------0------...------|
|-------------------------------------------- ------|
|-5---5-----5---5----3---3-----3-3--7---7---- -5-5--|
|-------------------------------------------- ------|
maybe even with the g string played in between those double thingies, don't know.
furthermore the second chorus ends on

|----|
|-10-|
|----|
|----|
|-9--|
|----|
aaand now i spent more time on this than i meant to.. I mean the notes are pretty clear and both patterns work just fine..

guest
You may want to rate the tab now too:
select rating
Wanna post a correction for this tab? Suggest correction