Oops, an error
Loading. Please wait.

A Gallant Gentleman tab

version 1
version 1

Whole song

Interactive

1,432 views 48 this week
4 commentsread comments
1 2 3 4 5
x 7
add to favorites
×
Save as Personal and add changes to this tab that will be seen only by you. Learn more ›
×
You can save this tab as Personal to edit and correct it or add notes. All changes will be seen only by you. Learn more »
launch autoscroll
font size
0
reset
how to read this tab
guitar tuner
edit
Autoscroll
slow
fast
+/-
esc
set tempo
stop
Tuning: C#G#C#F#A#D#

D#|-------------------|
A#|--7-------5----10--|
F#|-------------------|
C#|-------------------|
G#|--5-------4-----9--|
C#|-------------------|

D#|----------------------------------------------------------------------|
A#|--7-------5----10---3-------7----------7---0-------7---0-------2---3--|
F#|--------------------------------6-------------------------------------|
C#|----------------------------------------------------------------------|
G#|--5-------4-----9---2-------5---0------5-----------5-----------0------|
C#|-------------------------------------------5-----------5--------------|

D#|-------------------|
A#|--7-------5----10--|
F#|-------------------|
C#|-------------------|
G#|--5-------4-----9--|
C#|-------------------|

D#|----------------------------------------------------------------------|
A#|--7-------5----10---3-------7----------7---0-------7---0-------2---3--|
F#|--------------------------------6-------------------------------------|
C#|----------------------------------------------------------------------|
G#|--5-------4-----9---2-------5---0------5-----------5-----------0---2--|
C#|-------------------------------------------5-----------5--------------|

D#|----------------------------------------------------2--------|
A#|--0----7----7-/-8-\-7-\-5-\-3-/-5-\-3-/-5--0--3--2-----------|
F#|-------------------------------------------------------------|     (x3)
C#|----------------------------------------------------0--------|
G#|-------5--------------------------------------2--0-----------|
C#|--5----------------------------------------5-----------------|

D#|----------------------------------------------------2---------------|
A#|--0----7----7-/-8-\-7-\-5-\-3-/-5-\-3-/-5--0--3--2------0-----------|
F#|--------------------------------------------------------------------|     
C#|----------------------------------------------------0---------------|
G#|-------5--------------------------------------2--0------------------|
C#|--5----------------------------------------5------------5-----------|

D#|---------------------------------------|
A#|--7-------0------7----0-----2---3------|
F#|---------------------------------------|
C#|---------------------------------------|
G#|--5--------------5----------0----------|
C#|----------5-----------5----------------|

D#|-------------------|
A#|--7-------5----10--|
F#|-------------------|
C#|-------------------|
G#|--5-------4-----9--|
C#|-------------------|

D#|----------------------------------------------------------------------|
A#|--7-------5----10---3-------7----------7---0-------7---0-------2---3--|
F#|--------------------------------6-------------------------------------|
C#|----------------------------------------------------------------------|
G#|--5-------4-----9---2-------5---0------5-----------5-----------0---2--|
C#|-------------------------------------------5-----------5--------------|

D#|----------------------------------------------------2--------|
A#|--0----7----7-/-8-\-7-\-5-\-3-/-5-\-3-/-5--0--3--2-----------|
F#|-------------------------------------------------------------|    (x4)
C#|----------------------------------------------------0--------|
G#|-------5--------------------------------------2--0-----------|
C#|--5----------------------------------------5-----------------|

D#|--------------------------------|
A#|----0------7----0-----7---------|
F#|--------------------------------|   (x4)
C#|--------------------------------|
G#|-----------5----------5---------|
C#|----5-----------5---------------|

D#|----------------------------------------------------2--------|
A#|--0----7----7-/-8-\-7-\-5-\-3-/-5-\-3-/-5--0--3--2-----------|
F#|-------------------------------------------------------------|    (x4)
C#|----------------------------------------------------0--------|
G#|-------5--------------------------------------2--0-----------|
C#|--5----------------------------------------5-----------------|

D#|--------------------------------|
A#|----0------7----0-----7---------|
F#|--------------------------------|   (x2)
C#|--------------------------------|
G#|-----------5----------5---------|
C#|----5-----------5---------------|



************************************

| /  Slide up
| \  Slide down
| #  

************************************

            
            
Suggest correction
Creating personal tab
Creating personal tab
You can edit any tab online and save it as your Personal.

You can edit, replace or remove any tab part or add personal notes – all changes will be seen only by you.

Personal tabs can be accessed anytime from any device, even offline.
Learn more »
comments
print report bad tab
4 comments total. Showing first comments.
0 reply
0x5a827999 10 Apr 19, 2017 08:57 AM

Thank you! If you can please tab other songs from WLTS!

0 reply
AC0RN 150 Jul 28, 2017 11:43 AM

Fucking great. Awesome song

guest
You may want to rate the tab now too:
select rating
Wanna post a correction for this tab? Suggest correction