Oops, an error
Loading. Please wait.

Moments bass

by We Ride
16 views 3 this week
no commentswrite comment
1 2 3 4 5
3 more votes to show rating
add to favorites
×
Save as Personal and add changes to this tab that will be seen only by you. Learn more ›
×
You can save this tab as Personal to edit and correct it or add notes. All changes will be seen only by you. Learn more »
launch autoscroll
font size
0
reset
guitar tuner
edit
Autoscroll
slow
fast
+/-
esc
set tempo
stop
Difficulty
[Come in at 0:13]

G|---------------------------------------------------------------------------|
D|---------------------------------------------------------------------------|
A|---------------------------------------------------------------------------|x4
E|--5-5-555--8-8-8--7-7-7-7----5-5-555--8-8-8--7-7-7-7-----------------------|


[At 0:27]

G|---------------------------------------------------------------------------|
D|---------------------------------------------------------------------------|
A|--3-3-3-33h5555555--3-3-3-33h5555555---------------------------------------|x4
E|---------------------------------------------------------------------------|


[Back to 1st riff at 0:40]

G|---------------------------------------------------------------------------|
D|---------------------------------------------------------------------------|
A|---------------------------------------------------------------------------|x4
E|--5-5-555--8-8-8--7-7-7-7----5-5-555--8-8-8--7-7-7-7-----------------------|


[Back to 2nd riff at 0:54]

G|---------------------------------------------------------------------------|
D|---------------------------------------------------------------------------|
A|--3-3-3-33h5555555--3-3-3-33h5555555---------------------------------------|x4
E|---------------------------------------------------------------------------|


[Bridge]

[At 1:07]
G|---------------------------------------------------------------------------|
D|---------------------------------------------------------------------------|
A|-/888888888888888888888888/-5555555555555555555----------------------------|x3
E|---------------------------------------------------------------------------|


[Outro]

[Back to 1st riff at 1:40] (Guitarist stops playing, Drum + Bass is heard...)
G|---------------------------------------------------------------------------|
D|---------------------------------------------------------------------------|
A|---------------------------------------------------------------------------|x12
E|--5-5-555--8-8-8--7-7-7-7----5-5-555--8-8-8--7-7-7-7-----------------------|

Let that A note ring on the 5th fret of the E string (-5~~) at 2:21
or
Let the open A string ring out (-0~~) at 2:21... The drum roll will begin for the next song 

            
            
Suggest correction
Creating personal tab
Creating personal tab
You can edit any tab online and save it as your Personal.

You can edit, replace or remove any tab part or add personal notes – all changes will be seen only by you.

Personal tabs can be accessed anytime from any device, even offline.
Learn more »
Give kudos to tab author, rate the tab!
1 2 3 4 5
comments
print report bad tab
guest
Wanna post a correction for this tab? Suggest correction