Oops, an error
Loading. Please wait.

All Again For You Tab

version 2
version 2

Whole song

6,173 views 3 this week
2 commentsread comments
1 2 3 4 5
accurate
x 2
add to favorites
launch autoscroll
font size
0
reset
how to read this tab
guitar tuner
Tab Pro tools
  • play this tab
  • loop segment
  • change instrument
  • show fretboard
  • metronome
Autoscroll
slow
fast
+/-
esc
set tempo
stop
this song is super awesome so here it is

Intro and verse guitar 1
e----7---7---7---7---7---7---7---7---------|
b--9---9---9---9---7---7---7---7-----------|
g---9-9-9-9-9-9-9-9-9-9-9-9-9-9-9-9--------|
d------------------------------------------|  (lots of times)
a------------------------------------------|
e------------------------------------------|

Intro and verse there is no guitar 2

pre chorus guitar 1
e------------------|
b------------------|
g------------------|
d-7-7-77-9-9-99----|
a-7-7-77-9-9-99----|
e-7-7-77-9-9-99----|

pre chorus guitar 2
e------------------|
b------------------|
g-9-9-99-8-8-88----|
d-9-9-99-9-9-99----|
a-7-7-77-6-6-66----|
e------------------|
chorus part 1 guitar 1
e--------------------------------------|
b--------------------------------------|
g-66666666-----------------------------|(x2)
d-66666666777777772222222299999999-----|
a-44444444777777772222222299999999-----|
e---------777777772222222299999999-----|
chorus part 1 guitar 2
e-12-9-12-11-------|
b------------------|
g------------------|
d------------------|( all tremolo picked) (x2)
a------------------|
e------------------|
chorus part 2 guitars 1 and 2
e--------------------------------------------------|
b--------------------------------------------------|
g-6-6------------------6-6-------------------------|
d-6-6-7-7-2-2-99999999-6-6-7-7--2222222299999999---|
a-4-4-7-7-2-2-99999999-4-4-7-7--2222222299999999---|
e-----7-7-2-2-99999999-----7-7--2222222299999999---|
verse 2 guitar 1
e--------------------------------------------------------------------|
b--------------------------------------------------------------------|
g--------------------------------------------------------------------|
d-9999999999999999999999999999999966666666666666664444444444444444---|
a-7777777777777777666666666666666644444444444444442222222222222222---|
e--------------------------------------------------------------------|
P.M.................................................................
verse 2 guitar 2
same as intro for guitar 1
but P.M


Pre Chorus
Chorus part 1
Chorus part 2

Bridge
e---------------------------------       -------------------|
b---------------------------------       -------------------|
g---------------------------------       -------------------|
d-777-777-777-777-222-222-444-444-(x2)   -7-7-77-9-9-99-----|
a-777-777-777-777-222-222-444-444-       -7-7-77-9-9-99-----|
e-777-777-777-777-222-222-444-444-       -7-7-77-9-9-99-----|

chorus part 1
chorus part 2
intro(fades out)

thats it have any questions email is gcoop3333@yahoo.com
comments
We did not receive enough feedback on this tab! Please rate:
print report bad tab
1 2 3 4 5
2 comments total.
0 reply
GuitarTabberMan wrote on May 26 2008, 10:51 am

The intro notes are way off...

+1 reply
trjafan3 wrote on May 29 2008, 01:12 am

sorry i did this tab its in half step D

I want to post or [tab]
guest
You may want to rate the tab now too:
select rating
Please do not post tabs as comments. Select "correction" instead!