Oops, an error
Loading. Please wait.

Anna Maria All We Need Tab

version 2
version 2

Whole song

439 views 1 this week
no commentswrite comment
1 2 3 4 5
please rate
add to favorites
launch autoscroll
font size
0
reset
how to read this tab
guitar tuner
Autoscroll
slow
fast
+/-
esc
set tempo
stop
Help us to improve Ultimate-Guitar.com Take our survey!
×
Author
Difficulty
Tuning
novice
D A D G B E
The tab is in drop D BUT DROP THE THIN E TO D SO IT'LL BE  D,A,D,G,B,D.

Intro

d|----------0------------0--------------------------------------------------|
B|--------------------------------Repeat this as many times as needed-------|
G|------4----------2--------------------------------------------------------|
D|----5---5-----5-----5----------------------------5~~-77~~---1212----------|
A|-------------------------------------------------5~~-77~~---1212----------|
D|-------------------------------------------------5~~-77~~---1212----------|
                                                   ^these are twelves (12) Verse
d|--------0------------0-----------------------------------------------------|
B|---------------------------------------------------------------------------|
G|----4-----------2---------------Repeat as needed---------------------------|
D|--5---5------5----5--------------------------------------------------------|
A|---------------------------------------------------------------------------|
D|---------------------------------------------------------------------------|

Chorus
d|---------------------------------------------------------------------------|
B|---------------------------------------------------------------------------|
G|---------------------------------------------------------------------------|
D|---5---77---1212~~~----x4--------------------------------------------------|
A|---5---77---1212~~~--------------------------------------------------------|
D|---5---77---1212~~~--------------------------------------------------------|

repeat verse

chorus #2

d|---------------------------------------------------------------------------|
B|---------------------------------------------------------------------------|
G|---------------------------------------------------------------------------|
D|---5---77---1212~~~---x3 and then play----5--99--77~~----------------------|
A|---5---77---1212~~~-----------------------5--99--77~~--x1------------------|
D|---5---77---1212~~~-----------------------5--99--77~~----------------------|

play verse and then another chorus same as chorus #2


Interlude
d|---------------------------------------------------------------------------|
B|---------------------------------------------------------------------------|
G|-------------------77777777------------------------------------------------|
D|---99999999555555557777777777777777--x2 then play-999911111111121212-------|
A|---99999999555555555555555577777777---------------999911111111121212-------|
D|---9999999955555555--------77777777---------------999911111111121212-------|
                                                                             ^Those are 
9s 11s and 12s.
d|---------------------------------------------------------------------------|
B|---------------------------------------------------------------------------|
G|---------------------------------------------------------------------------|
D|---555555577777777999991212121212~~~---------------------------------------|
A|---555555577777777999991212121212~~~---x1----------------------------------|
D|---555555577777777999991212121212~~~---------------------------------------|

Chorus #4
d|---------------------------------------------------------------------------|
B|---------------------------------------------------------------------------|
G|---------------------------------------------------------------------------|
D|---555555777777121212121212~~~---------------------------------------------|
A|---555555777777121212121212~~~---------------------------------------------|
D|---555555777777121212121212~~~---------------------------------------------|

d|---------------------------------------------------------------------------|
B|---------------------------------------------------------------------------|
G|---------------------------------------------------------------------------|
D|---5---77---1212~~~------repeat until end----------------------------------|
A|---5---77---1212~~~--------------------------------------------------------|
D|---5---77---1212~~~--------------------------------------------------------|
Suggest correction
Give kudos to tab author, rate the tab!
1 2 3 4 5
comments
print report bad tab
guest
You may want to rate the tab now too:
select rating
Wanna post a correction for this tab? Suggest correction