Oops, an error
Loading. Please wait.

Bring Out Your Best Tab

177 views 3 this week
no commentswrite comment
1 2 3 4 5
please rate
add to favorites
launch autoscroll
font size
0
reset
how to read this tab
guitar tuner
Tab Pro tools
  • play this tab
  • loop segment
  • change instrument
  • show fretboard
  • metronome
×
Best way to learn
"Bring Out Your Best"
Autoscroll
slow
fast
+/-
esc
set tempo
stop
Difficulty
Tuning
intermediate
C# G# C# F# A# D#
We The Kings - Bring Out Your Best

Tuning: C# (C#, G#, C#, F#, G#, C#)

Intro Part 1

rhythm guitar

C#|----------------------|
G#|----------------------|
F#|----------------------|
C#|-77--777--777--77777--|      x3
G#|-55--555--555--55555--|
C#|----------------------|

C#|----------------------|
G#|----------------------|
F#|----------------------|
C#|-77--777--77----------|      x1
G#|-55--555--55----------|
C#|----------------------|

acoustic guitar

C#|-------------------------------------------|
G#|-------------------------------------------|
F#|----------------------77--777--777--77777--|
C#|-77--777--777--77777--55--555--555--55555--|     x3
G#|-55--555--555--55555-----------------------|
C#|-------------------------------------------|

C#|-------------------------------------------|
G#|-------------------------------------------|
F#|----------------------77--777--77----------|
C#|-77--777--777--77777--55--555--55----------|      x1
G#|-55--555--555--55555-----------------------|
C#|-------------------------------------------|

Intro Part 2

lead guitar

C#|----7--------------------------------(7)-----------------|
G#|---(0)--------------------------------0------------------|
F#|-------6--------------------------------6----------------|
C#|--7------7-9-7----------------------7----7-9-7-------0---|   x2
G#|--------------7-9------------------------------7h9p7-----|
C#|---------------------------------------------------------|

rhythm guitar

C#|-----------------------------|
G#|-----------------------------|
F#|-----------------------------|
C#|-00000000--55555555----------|
G#|-00000000--55555555----------|               x2
C#|-00000000--55555555----------|

Verse

rhythm guitar

C#|-------------------------------------|
G#|-------------------------------------|
F#|-7777777777777777--------------------|
C#|-7777777777777777--5555555555555555--|
G#|-5555555555555555--5555555555555555--|
C#|-------------------5555555555555555--|
    ................  ................            all x2

C#|-------------------------------------|
G#|-------------------------------------|
F#|-------------------------------------|
C#|-2222222222222222--5555555555555555--|
G#|-2222222222222222--5555555555555555--|
C#|-2222222222222222--5555555555555555--|
    ................  ................

acoustic guitar

C#|-0000000000000000--0000000000000000--|
G#|-0000000000000000--0000000000000000--|
F#|-7777777777777777--7777777777777777--|
C#|-7777777777777777--5555555555555555--|
G#|-5555555555555555--5555555555555555--|
C#|-------------------5555555555555555--|
                                                all x2
C#|-0000000000000000--0000000000000000--|
G#|-0000000000000000--0000000000000000--|
F#|-4444444444444444--7777777777777777--|
C#|-2222222222222222--5555555555555555--|
G#|-2222222222222222--5555555555555555--|
C#|-2222222222222222--5555555555555555--|

Pre-Chorus

rhythm guitar

C#|-------------------------------|
G#|-------------------------------|
F#|-------------------------------|
C#|-5*--7*--5*--7777777777777777--|
G#|-5*--7*--5*--7777777777777777--|
C#|-5*--7*--5*--7777777777777777--|

acoustic guitar

C#|-0*--0*--0*--0000000000000000--|
G#|-0*--0*--0*--0000000000000000--|
F#|-7*--9*--7*--9999999999999999--|
C#|-5*--7*--5*--7777777777777777--|        *let ring
G#|-5*--7*--5*--7777777777777777--|
C#|-5*--7*--5*--7777777777777777--|

Chorus

rhythm guitar

C#|----------------------------------|
G#|----------------------------------|
F#|----------------------------------|
C#|-0------7------5------9-----7-----|         x2
G#|-0-x16--7-x16--5-x16--9-x8--7-x8--|
C#|-0------7------5------9-----7-----|

lead guitar

C#|---------------------------------------------|
G#|-12-x8--10-x4--9-x4--7-x4--5-x4--4-x4--5-x4--|
F#|---------------------------------------------|
C#|---------------------------------------------|
G#|---------------------------------------------|
C#|---------------------------------------------|

C#|---------------------------------------------|
G#|-12-x8--10-x4--9-x4--7-x4--5-x4--4-x8--------|
F#|---------------------------------------------|
C#|---------------------------------------------|
G#|---------------------------------------------|
C#|---------------------------------------------|

C#|---------------------------------------------|
G#|-12-x8--10-x4--9-x4--7-x4--5-x4--4-x4--5-x4--|
F#|---------------------------------------------|
C#|---------------------------------------------|
G#|---------------------------------------------|
C#|---------------------------------------------|

C#|---------------------------------------------|
G#|-12-x8--10-x4--9-x4--7-x4--5-x4--4-x8--------|
F#|---------------------------------------------|
C#|---------------------------------------------|
G#|---------------------------------------------|
C#|---------------------------------------------|

Intro Part 2

Verse

Pre-Chorus

Chorus

Bridge Part 1

rhythm guitar
                         first time    second time
C#|---------------------|-------------|-------------|
G#|---------------------|-------------|-------------|
F#|---------------------|-------------|-------------|
C#|-0------7-----5------|-2-----7-----|-9-----7-----|     x2
G#|-0-x16--7-x16-5-x16--|-2-x8--7-x8--|-9-x8--7-x8--|
C#|-0------7-----5------|-2-----7-----|-9-----7-----|

lead guitar
                        first time     second time
C#|--------------------|--------------|------------|
G#|--------------------|--------------|------------|
F#|-14-----12----11----|9------7/9\7--|-7-----6----|
C#|-X--x8--X-x4--X--x4-|X-x12--X-X-X--|-X-x4--X-x8-|       x2
G#|-12-----10----9-----|7------5/7\5--|-5-----4----|
C#|-----------------------------------|------------|

Bridge Part 2

rhythm guitar

C#|----------------|
G#|----------------|
F#|----------------|
C#|-7--till chorus-|
G#|-5--------------|
C#|----------------|

acoustic guitar

C#|----------------------------------------------------------------|
G#|----------------------------------------------------------------|
F#|----------------------------------------------------------------|
C#|-----------------77-777-777-777-755-555-555-555-555-599-999-95--|
G#|-55-555-555-555-5-----------------------------------------------|
C#|----------------------------------------------------------------|

Chorus x3

ends on

rhythm guitar

C#|---|
G#|---|
F#|---|
C#|-0*|
G#|-0*|
C#|-0*|

lead guitar               *let ring

C#|---|
G#|---|
F#|-7*|
C#|-X-|
G#|-5*|
C#|-0*|
comments
We did not receive enough feedback on this tab! Please rate:
print report bad tab
1 2 3 4 5
I want to post or [tab]
guest
You may want to rate the tab now too:
select rating
Please do not post tabs as comments. Select "correction" instead!