Oops, an error
Loading. Please wait.

Check Yes Juliet Tab

version 2
version 2

Acoustic

Whole song

Interactive

19,736 views 1 this week
1 commentread comment
1 2 3 4 5
x 3
add to favorites
launch autoscroll
font size
0
reset
how to read this tab
guitar tuner
Autoscroll
slow
fast
+/-
esc
set tempo
stop
Help us to improve Ultimate-Guitar.com Take our survey!
×
Check yes Juliet: We The Kings
Acoustic Version
Tabbed By: Micah Feldkamp
Tuning: Drop D
Strum: DDUDUDDU
e:---------------------------------------|x2
B:---------------------------------------|
G:-----7----6-----7-----6----------------|
D:--------------------------7--4---------| 
A:---5----5----5----5--------------------|
E:---------------------------------------|

e:---------------------------------------|x4
B:---------------------------------------|
G:-7---------4---------------------------|
D:-7---------4---------5-----------------| 
A:-5-(x16)---2-(x8)----5-----------------|
E:---------------------5-(x8)------------|
Check yes juliet
are you with me
rain is falling down on the sidewalk
I won't go until you come outside
check yes juliet
kill the limbo
I'll keep tossing rocks at your window
cause there's no turning back for us tonight

lace up your shoes
A O A O ah
here's how we do

chorus
e:----------------------------------------|x4
B:----------------------------------------|
G:-44444444--77777777---------------------|
D:-44444444--77777777--55555555--77777777-|
A:-22222222--55555555--55555555--77777777-|
E:---------------------55555555--77777777-|
run baby run
don't ever look back
they'll tear us apart
if you give them the chance
don't sell your heart
don't say we're not meant to be
run baby run
forever will be
you and me

e:---------------------------------------|x4
B:---------------------------------------|
G:-7---------4---------------------------|
D:-7---------4---------5-----------------| 
A:-5-(x16)---2-(x8)----5-----------------|
E:---------------------5-(x8)------------|
check yes juliet
I'll be waiting
wishing, wanting
yours for the taking
just sneak out
and don't tell a soul goodbye
check yes juliet
here's the countdown
3...2...1... now fall in my arms
now they can change the locks
don't let them change your mind

lace up your shoes
A O A O ah
here's how we do

chorus

e:---------------------------------------|x2
B:---------------------------------------|
G:-------------777-77--------------------|
D:--555---222--777-77--77-77-------------|
A:--555---222--555-55--77-77-------------|
E:--555---222----------77-77-------------|

e:------------------------------|
B:------------------------------|
G:--4---------------------------|
D:--4---------5-----------------| 
A:--2-(x8)----5-----------------|
E:------------5-(x8)------------|

we're flying through the night
flying through the night
way up high,
the view from here is getting better with
you by my side

chorus

e:---------|
B:---------|
G:-7-------|
D:-7-------|fades out
A:-5-(x32)-|
E:---------|

Suggest correction
Give kudos to tab author, rate the tab!
1 2 3 4 5
comments
print report bad tab
1 comment total.
0 reply
TrRobida 10 Sep 08, 2011 12:25 PM

This is actually a half step down. So if you tune it drop d and then play 4 instead of 5 and move everything over its right. Which works since there are no open notes.

guest
You may want to rate the tab now too:
select rating
Wanna post a correction for this tab? Suggest correction