Oops, an error
Loading. Please wait.

Check Yes Juliet Tab

version 3
version 3

Acoustic

Whole song

Interactive

2,186 views 3 this week
2 commentsread comments
1 2 3 4 5
please rate
add to favorites
launch autoscroll
font size
0
reset
how to read this tab
guitar tuner
Autoscroll
slow
fast
+/-
esc
set tempo
stop
Help us to improve Ultimate-Guitar.com Take our survey!
×
Author
Difficulty
Tuning
intermediate
D A D G B E
----------------------------------------------------------------------------------------------------
                                                       Check Yes Juliet- We The Kings
----------------------------------------------------------------------------------------------------
I'm positive that this tab is at least 99% correct. If there are any questions 
feel free to comment. Enjoy!

Tabbed by: muskan101
Tuning: Drop D
Strumming pattern: DUDUDUDUDUDUDUDUD
Intro-
Guitar 1: (Does this 6 times)
e|-----------------------------------------------------------------|
B|---3----2----3---2-----------------------------------------------|
G|--------------------2--------------------------------------------|
D|-0---0----0---0-------4------------------------------------------|
A|-----------------------------------------------------------------|
D|-----------------------------------------------------------------|
   Guitar 2: STRUMMING
 (Comes in after guitar 1 plays beginning 2 times)
e|--------------------------------------------------x5555x---------|
B|---3----2----3---2--------------------------------x5555x---------|
G|--------------------2---------------77777----------7777----------|
D|-0---0----0---0-------4----(8)-----------(4)-------7777------(4)-|
A|------------------------------------99999---------x5555x---------|
D|-----------------------------------x99999x------- x5555x---------|
Verse-
Both Guitars:

Check yes Juliet /I wont go   /outside
e|---------------------------- x5555x ------------------------------|
B|---------------------------- x5555x ------------------------------|
G|---777-----------444----------7777--------------------------------|
D|---777----(8)----444------(4)-7777-------(4)----------------------| 
A|---555-----------222-------- x5555x ------------------------------|
D|-----------------------------x5555x ------------------------------|
Guitar 1: Starts when Guitar 1 has payed ^ once
e|------------------------------------------------------------------|
B|---3----2----3---2------------------------------------------------|
G|--------------------2---------------------------------------------|
D|-0---0----0---0-------4-------------------------------------------|
A|------------------------------------------------------------------|
D|------------------------------------------------------------------|
Guitar 2
Check yes Juliet/There?s no   /tonight
e|----------------------------- x5555x ----------- x5x --- x5x ------|
B|----------------------------- x5555x ----------- x5x --- x5x ------|
G|---777-----------444----------7777----------------7-------7-----7~-|
D|---777----(8)----444----(4)---7777-------(4)------7-------7-----7~-|
A|---555-----------222--------- x5555x ----------- x5x ----x5x -- ---|
D|------------------------------x5555x ------------x5x --- x5x ------|
Pre Chorus- (OPTIONAL)                                                       *      *
Strum same pattern   
?Ayo Ayo heres how we do/
e|----xxxxxx---------------------------------------------------------|
B|----xxxxxx---------------------------------------------------------|
G|----xxxxxx-------------------7 SM----------------------------------|
D|----xxxxxx---------------------------------------------------------|
A|----xxxxxx---------------------------------------------------------|
D|----xxxxxx---------------------------------------------------------|

Chorus-
Both Guitars:
 Baby    /run  / ever /  back  theyll / tear/     apart if/   give them the chance../
e|--x-------------------x555x-----------------------------------------------x555x-----|
B|--x-------------------x555x-----------------------------------------------x555x-----|
G|--x-----777----777-----777------------666--------777--------777------------777------|
D|--x--------------------777-----------x777x-------999--------777------------777------|
A|--x-----999-----------x555x----------x777x--------------------------------x555x-----|
D|--x----*999*----------x555x----------x777x------*999*---------------------x555x-----|

Dont sell your /heart /we re not/meant to be/run baby/run /  forever      we ll  be
e|------------------------------x555x---------------------------------------------x555x------|
B|------------------------------x555x---------------------------------------------x555x------|
G|-666----------777-------------777----------666-----777---------777---------------777----66-|
D|-x777x--------999-------------777------------------------------777--------------x777x------|
A|-x777x--------999-------------x555x--------888-----999--------------------------x555x---88-|
D|-x777x-------*999*------------x555x--------888----*999*-------------------------x555x---88-|

Verse- 
Both Guitars:

Check yes    /Just sneak out   /goodbye
e|---------------------------- x5555x ------------------------------|
B|---------------------------- x5555x ------------------------------|
G|---777-----------444----------7777--------------------------------|
D|---777----(8)----444------(4)-7777-------(4)----------------------| 
A|---555-----------222-------- x5555x ------------------------------|
D|-----------------------------x5555x ------------------------------|
Guitar 1: Starts when Guitar 1 has payed ^ once
e|------------------------------------------------------------------|
B|---3----2----3---2------------------------------------------------|
G|--------------------2---------------------------------------------|
D|-0---0----0---0-------4-------------------------------------------|
A|------------------------------------------------------------------|
D|------------------------------------------------------------------|
Guitar 2
Check yes Juliet/They can  /   mind
e|----------------------------- x5555x ----------- x5x --- x5x ------|
B|----------------------------- x5555x ----------- x5x --- x5x ------|
G|---777-----------444----------7777----------------7-------7-----7~-|
D|---777----(8)----444----(4)---7777-------(4)------7-------7-----7~-|
A|---555-----------222--------- x5555x ----------- x5x ----x5x -- ---|
D|------------------------------x5555x ------------x5x --- x5x ------|  

  Ayo Ayo heres how we do/
e|----xxxxxx---------------------------------------------------------|
B|----xxxxxx---------------------------------------------------------|
G|----xxxxxx-------------------7 SM----------------------------------|
D|----xxxxxx---------------------------------------------------------|
A|----xxxxxx---------------------------------------------------------|
D|----xxxxxx---------------------------------------------------------|

Chorus-
Both Guitars:
 Baby    /run  / ever /  back  theyll / tear/     apart if/   give them the chance../
e|--x-------------------x555x-----------------------------------------------x555x-----|
B|--x-------------------x555x-----------------------------------------------x555x-----|
G|--x-----777----777-----777------------666--------777--------777------------777------|
D|--x--------------------777-----------x777x-------999--------777------------777------|
A|--x-----999-----------x555x----------x777x--------------------------------x555x-----|
D|--x----*999*----------x555x----------x777x------*999*---------------------x555x-----|

Dont sell your /heart /we re not/meant to be/run baby/run /  forever      we ll  be
e|------------------------------x555x---------------------------------------------x555x------|
B|------------------------------x555x---------------------------------------------x555x------|
G|-666----------777-------------777----------666-----777---------777---------------777----66-|
D|-x777x--------999-------------777------------------------------777--------------x777x------|
A|-x777x--------999-------------x555x--------888-----999--------------------------x555x---88-|
D|-x777x-------*999*------------x555x--------888----*999*-------------------------x555x---88-|

Bridge-
Were flying/through/ the night/ through/night/ .. up   . hiiighhh      /the view../from/here/..better
e|---x55x---xx----------x22x----xx-------x22x----x77x77x99x77x--x55x----x22x-xx--x22x------------xx-|
B|---x55x---xx----------x22x----xx-------x22x----x77x77x99x77x--x55x----x22x-xx--x22x------------xx-|
G|---x55x---xx----------x22x----xx-------x22x----x77x77x99x77x--x55x----x22x-xx--x22x------------xx-|
D|---x55x---xx----------x22x----xx-------x22x----x77x77x99x77x--x55x----x22x-xx--x22x------------xx-|
A|---x55x---xx----------x22x----xx-------x22x----x77x77x99x77x--x55x----x22x-xx--x22x------------xx-|
D|---x55x---xx----------x22x----xx-------x22x----x77x77x99x77x--x55x----x22x-xx--x22x------------xx-|
  
/with/   you     by my   side/
e|-x55x--x77x77x99x77x--x55x-----|
B|-x55x--x77x77x99x77x--x55x-----|
G|-x55x--x77x77x99x77x--x55x-----|
D|-x55x--x77x77x99x77x--x55x-----|
A|-x55x--x77x77x99x77x--x55x-----|
D|-x55x--x77x77x99x77x--x55x-----|

Guitar 1:
e|----------------------------------------------------------------|
B|---3----2----3---2----------------------------------------------|
G|--------------------2-------------------------------------------|
D|-0---0----0---0-------4-----------------------------------------|
A|----------------------------------------------------------------|
D|----------------------------------------------------------------|
   Guitar 2: STRUMMING
 (Comes in after guitar 1 plays beginning 2 times)
e|--------------------------------------x5555x------------------|
B|--------------------------------------x5555x------------------|
G|-----------------------77777-----------7777-------------------|
D|--------------------------------(4)----7777------(4)----------|
A|-----------------------99999----------x5555x------------------|
D|----------------------*99999*-------- x5555x------------------|          


Chorus-
Both Guitars:

 Baby    /run  / ever /  back  theyll / tear/     apart if/   give them the chance../
e|--x-------------------x555x-----------------------------------------------x555x-----|
B|--x-------------------x555x-----------------------------------------------x555x-----|
G|--x-----777----777-----777------------666--------777--------777------------777------|
D|--x--------------------777-----------x777x-------999--------777------------777------|
A|--x-----999-----------x555x----------x777x--------------------------------x555x-----|
D|--x----*999*----------x555x----------x777x------*999*---------------------x555x-----|

Dont sell your /heart /we re not/meant to be/run baby/run /  forever      we ll  be
e|------------------------------x555x---------------------------------------------x555x------|
B|------------------------------x555x---------------------------------------------x555x------|
G|-666----------777-------------777----------666-----777---------777---------------777----66-|
D|-x777x--------999-------------777------------------------------777--------------x777x------|
A|-x777x--------999-------------x555x--------888-----999--------------------------x555x---88-|
D|-x777x-------*999*------------x555x--------888----*999*-------------------------x555x---88-|

Both Guitars:
 Baby    /run  / ever /  back  theyll / tear/     apart if/   give them the chance../
e|--x-------------------x555x-----------------------------------------------x555x-----|
B|--x-------------------x555x-----------------------------------------------x555x-----|
G|--x-----777----777-----777------------666--------777--------777------------777------|
D|--x--------------------777-----------x777x-------999--------777------------777------|
A|--x-----999-----------x555x----------x777x--------------------------------x555x-----|
D|--x----*999*----------x555x----------x777x------*999*---------------------x555x-----|

Dont sell your /heart /we re not/meant to be/run baby/run /  forever      we ll  be
e|------------------------------x555x---------------------------------------------x555x------|
B|------------------------------x555x---------------------------------------------x555x------|
G|-666----------777-------------777----------666-----777---------777---------------777----66-|
D|-x777x--------999-------------777------------------------------777--------------x777x------|
A|-x777x--------999-------------x555x--------888-----999--------------------------x555x---88-|
D|-x777x-------*999*------------x555x--------888----*999*-------------------------x555x---88-|

e|------------------------------------------------------------------|
B|---3----2----3---2------------------------------------------------|
G|--------------------2---------------------------------------------|
D|-0---0----0---0-------4-------------------------------------------|
A|------------------------------------------------------------------|
D|------------------------------------------------------------------|

 (^Guitar 1 picks it and Guitar 2 strums it until song ends)
************************************
KEY:
| /   slide up
| \   slide down
| p   pull-off
| ~  strum once and  let it ring
|SM  strum once and mute
| x barre (if its around a number, it means to barre on that fret)
Suggest correction
Give kudos to tab author, rate the tab!
1 2 3 4 5
comments
print report bad tab
2 comments total.
0 reply
muskan101 34 wrote on August 30 2012, 01:52 pm

544

+1 reply
muskan101 34 wrote on August 30 2012, 02:06 pm

Sorry the first comment was not supposed to be there but I have a correction. The second part of the chorus should go like this:

Dont sell your /heart /we re not/meant to be/run
|--------------------------------x555x-----------|
|--------------------------------X555X-----------|
|-666-----------777----777--------777----666-----|
|X777X---------X999X--------------777---X777X----|
|X777X---------X999X-------------X555X--X777X----|
|X777X---------X999X-------------X555X--X777X----|

guest
You may want to rate the tab now too:
select rating
Please do not post tabs as comments. Select "correction" instead!