Oops, an error
Loading. Please wait.
We have Chord Pro version of Check Yes Juliet.
It's the closest thing you can get to the original song and it has interactive parts. Check out the tab »
×
14,923 views 1 this week
3 commentsread comments
1 2 3 4 5
x 3
add to favorites
launch autoscroll
font size
0
reset
guitar tuner
backing track
0:00
0:00
Autoscroll
slow
fast
+/-
esc
set tempo
stop
Author
Difficulty
novice
-----------------------------------------------------------------------------
Check Yes Juliet - We The Kings
-----------------------------------------------------------------------------
Tabbed by: Atticus44
Email:plus44@visir.is / eytor44@gmail.com

Intro  (0:06-0:16)
G ------------------------|
D ------------------------| x1
A -55555555---------------|
E ----------7777-3333-----|

Verse (0:17-0:40)
G ------------------------|
D ------------------------| x2
A -55555555---------------|
E ----------7777-3333-----|

Pre-Chorus (0:41-0:45)
        No Bass

Chorus (0:46-1:09)
G ------------------------|
D ------------------------| x4
A ------5555--------------|
E -7777------3333-5555----|

Pre-Verse (1:10-1:14)
G ------------------------|
D ------------------------| x2
A -55555555---------------|
E ------------------------|

Verse (1:15-1:38)
G ------------------------|
D ------------------------| x2
A -55555555---------------|
E ----------7777-3333-----|

Pre-Chorus (1:39-1:44)
        No Bass

Chorus (1:45-2:07)
G ------------------------|
D ------------------------| x4
A ------5555--------------|
E -7777------3333-5555----|

Bridge (2:08-2:19) not sure about this part
G -------------------|----|
D -------------------|----| x2
A -555-----555-------|-5--|
E -----777-----55-3--|----|

No Bass (2:20-2:24)

(2:25-2:30)
G ------------------------|
D ------------------------| x1
A -5555-------------------|
E ------3333--------------|

No Bass (2:30-2:43)

Chorus (2:44-3:17)
G ------------------------|
D ------------------------| x6
A ------5555--------------|
E -7777------3333-5555----|

Outro (3:18-3:35)

G ------------------------|
D ------------------------| x6
A --5555------------------|
E ------------------------|

Be free to comment:D








Suggest correction
Give kudos to tab author, rate the tab!
1 2 3 4 5
comments
print report bad tab
3 comments total.
0 reply
brandon:D 31 Feb 14, 2008 02:19 PM

bridge is
G -------------------|----|
D -------------------|----| x2
A ---------555-------|-5--|
E -333-000-----55-3--|----|

0 reply
atticus44 92 Feb 14, 2008 10:38 PM

okay.. thanks for the correction ;)

0 reply
zunigaej2 10 Jul 16, 2014 09:45 PM

love we the kings

guest
You may want to rate the tab now too:
select rating
Wanna post a correction for this tab? Suggest correction