Oops, an error
Loading. Please wait.

Check Yes Juliet Tab

version 2
version 2

Whole song

Interactive

323,195 views 207 this week
42 commentsread comments
1 2 3 4 5
excellent!
x 93
add to favorites
launch autoscroll
font size
0
reset
how to read this tab
guitar tuner
Autoscroll
slow
fast
+/-
esc
set tempo
stop
Help us to improve Ultimate-Guitar.com Take our survey!
×
Author
Difficulty
Tuning
intermediate
D A D G B E
   It's Jake again doing another tab, hope you guys like it.
   This is Check Yes Juliet by We The Kings.
   The tuning is Drop D. Enjoy!

   . = palm mute


[Intro]


e:---------------------------------------|
B:---------------------------------------|
G:-----7----6-----7-----6----------------|
D:--------------------------7--4---------| } x2
A:---5----5----5----5--------------------|
E:---------------------------------------|

e:---------------------------------------|
B:---------------------------------------|
G:---------------------------------------|
D:-7---------4---------5-----------------|
A:-5-(x32)---2-(x16)---5-----------------|
E:---------------------5-(x16)-----------|


[Verse]

e:---------------------------------------|
B:---------------------------------------|
G:---------------------------------------|
D:-7---------4---------5-----------------| (everything palm muted)
A:-5-(x32)---2-(x16)---5-----------------|
E:---------------------5-(x16)-----------| } x2
   .         .         .


[Chorus]

Lace up your shoes
A O A Ohh
Here's how we do

RUN BABY RUN   


e:-------------------------------------------------------------------------------|
B:-------------------------------------------------------------------------------|
G:-------------------------------------------------------------------------------|
D:-4-4-4-4-4-4-4-4--7-7-7-7-7-7-7-7--5-5-5-5-5-5-5-5--7-7-7-7-7-7-7-7------------| x4
A:-2-2-2-2-2-2-2-2--5-5-5-5-5-5-5-5--5-5-5-5-5-5-5-5--7-7-7-7-7-7-7-7------------|
E:-----------------------------------5-5-5-5-5-5-5-5--7-7-7-7-7-7-7-7------------|


[Bridge]

e:----------------------------------------------|
B:----------------------------------------------|
G:----------------------------------------------|
D:--5-5-5---222--7-7-7-7-7--7-7-7-7-------------| } x2
A:--5-5-5---222--5-5-5-5-5--7-7-7-7-------------|
E:--5-5-5---222-------------7-7-7-7-------------|


e:------------------------------|
B:------------------------------|
G:------------------------------|
D:--4---------5-----------------|
A:--2-(x16)---5-----------------|
E:------------5-(x16)-----------|


[Chorus]

e:-------------------------------------------------------------------------------|
B:-------------------------------------------------------------------------------|
G:-------------------------------------------------------------------------------|
D:-4-4-4-4-4-4-4-4--7-7-7-7-7-7-7-7--5-5-5-5-5-5-5-5--7-7-7-7-7-7-7-7------------| x6
A:-2-2-2-2-2-2-2-2--5-5-5-5-5-5-5-5--5-5-5-5-5-5-5-5--7-7-7-7-7-7-7-7------------|
E:-----------------------------------5-5-5-5-5-5-5-5--7-7-7-7-7-7-7-7------------|

e:---------------|
B:---------------|
G:---------------|
D:-7-------------|(last 64 fades out)
A:-5-(x64)-------|
E:---------------|


THE END OF A VERY GOOD SONG


By: Jake Tomlinson

www.myspace.com/my_space_biotch1
Suggest correction
comments
print report bad tab
42 comments total. Showing first comments. show 1 bad comment
+5 reply
Ben Downes 396 wrote on February 16 2008, 05:05 am

dude the tabs perfect but it should be in drop d

+1 reply
LostProphetsLov 10 wrote on March 20 2008, 06:06 am

Great Tab!
=D

Perfect.

guest
You may want to rate the tab now too:
select rating
Wanna post a correction for this tab? Suggest correction