Oops, an error
Loading. Please wait.

Check Yes Juliet Tab

version 3
version 3

Whole song

Interactive

11,433 views 3 this week
1 commentread comment
1 2 3 4 5
worth learning
x 4
add to favorites
launch autoscroll
font size
0
reset
how to read this tab
guitar tuner
Tab Pro tools
  • play this tab
  • loop segment
  • change instrument
  • show fretboard
  • metronome
×
Best way to learn
"Check Yes Juliet"
Autoscroll
slow
fast
+/-
esc
set tempo
stop
Contributor
Band: We The Kings
Album: We The Kings
Tuning: Standard

/ = Slide Up
\ = Slide Down


Intro:

Guitar One
E|------------------------|
B|-----3/2-----3/2-----3--|
G|------------------------|  x5
D|--0-------0-------0-----|
A|------------------------|
E|------------------------|

Guitar Two
E|--------------------------|
B|--------------------------|
G|--------------------------|
D|----7--x16--4--x8--5--x8--|  x1
A|----5-------2------5------|
E|--------------------------|


VERSE: FIRST

Guitar One
E|--------------------------x---|
B|--------------------------x---|
G|--------------------------x---|
D|----7--x16--4--x8--5--x8--x---|  x2
A|----5-------2------5------x---|
E|--------------------------x---|

Guitar Two: After Guitar One's First Repeat
E|------------------------|
B|-----3/2-----3/2-----3--|
G|------------------------|  x4
D|--0-------0-------0-----|
A|------------------------|
E|------------------------|

Guitar One: Listen For Strumming Pattern
E|--x---------------------|
B|--x---------------------|
G|--x---------------------|
D|--x---------------------| x1
A|--x---------------------|
E|--x---------------------|


CHORUS: FIRST

Guitar One
E|------------------------------|
B|------------------------------|
G|------------------------------|
D|--4--x8--7--x8--5--x8--7--x8--|  x2
A|--2------5------5------7------|
E|------------------------------|

Guitar One
E|--------------------------------|
B|--------------------------------|
G|--------------------------------|
D|---9--x8--12--x8--5--x8--7--x8--| x2
A|---9------12------5------7------|
E|---7------10------3------5------|

PRE-VERSE

Guitar One
E|------------------------|
B|-----3/2-----3/2-----3--|
G|------------------------|  x5
D|--0-------0-------0-----|
A|------------------------|
E|------------------------|

Guitar Two: Until End Of Pre-Verse
E|-------|
B|-------|
G|---7---| x1
D|---7---|
A|---5---|
E|-------|

VERSE: SECOND

Guitar One
E|--------------------------x---|
B|--------------------------x---|
G|--------------------------x---|
D|----7--x16--4--x8--5--x8--x---|  x2
A|----5-------2------5------x---|
E|--------------------------x---|

Guitar Two: This Part Is Optional
E|------------------------|
B|-----3/2-----3/2-----3--|
G|------------------------|  x4
D|--0-------0-------0-----|
A|------------------------|
E|------------------------|

Guitar One: Listen For Strumming Pattern
E|--x---------------------|
B|--x---------------------|
G|--x---------------------|
D|--x---------------------| x1
A|--x---------------------|
E|--x---------------------|

CHORUS: SECOND

Guitar One
E|------------------------------|
B|------------------------------|
G|------------------------------|
D|--4--x8--7--x8--5--x8--7--x8--|  x2
A|--2------5------5------7------|
E|------------------------------|

Guitar One
E|--------------------------------|
B|--------------------------------|
G|--------------------------------|
D|---9--x8--12--x8--5--x8--7--x8--| x2
A|---9------12------5------7------|
E|---7------10------3------5------|


BRIDGE

Guitar One
E|--------------------------------------------------------|
B|--------------------------------------------------------|
G|--------------------------------------------------------|
D|----555555/2--222222/4---444444----7-7----7/9\7----5----| x1
A|----555555/2--222222/4---444444----7-7----7/9\7----5----|
E|----333333----------/2---222222----5-5----5/7\5----3----|

Guitar One
E|-----------------------------------------------------|
B|-----------------------------------------------------|
G|-----------------------------------------------7-----|
D|----555555/2--222222/4---444444----7-7----7/9--7-----| x1
A|----555555/2--222222/4---444444----7-7----7/9--5-----|
E|----333333----------/2---222222----5-5----5/7--------|

PRE-CHORUS

Guitar Two: After Both Of Guitar One's Parts
E|------------------------|
B|-----3/2-----3/2-----3--|
G|------------------------|  x4
D|--0-------0-------0-----|
A|------------------------|
E|------------------------|

Guitar One: After Second Repeat Of Guitar Two
E|--------------------|
B|--------------------|
G|--------------------| x1
D|----5--x16--5--x16--|
A|----3-------5-------|
E|--------------------|

PAUSE

CHORUS: LAST

Guitar One
E|------------------------------|
B|------------------------------|
G|------------------------------|
D|--4--x8--7--x8--5--x8--7--x8--|  x2
A|--2------5------5------7------|
E|------------------------------|

Guitar One
E|--------------------------------|
B|--------------------------------|
G|--------------------------------|
D|---9--x8--12--x8--5--x8--7--x8--| x4
A|---9------12------5------7------|
E|---7------10------3------5------|

Guitar One: Until Fade-Out Of The End
E|-------|
B|-------|
G|---7---|
D|---7---|
A|---5---|
E|-------|

Guitar Two: Until Fade-Out Of The End
E|------------------------|
B|-----3/2-----3/2-----3--|
G|------------------------|
D|--0-------0-------0-----|
A|------------------------|
E|------------------------|
comments
print report bad tab
1 comment total.
0 reply
sashabee wrote on November 23 2009, 11:48 am

i dont THINK thats accurate.... i think theres more notes in the intro

I want to post or [tab]
guest
You may want to rate the tab now too:
select rating
Please do not post tabs as comments. Select "correction" instead!