Oops, an error
Loading. Please wait.
We have Chord Pro version of Check Yes Juliet.
It's the closest thing you can get to the original song and it has interactive parts. Check out the tab »
×
3,027 views 1 this week
no commentswrite comment
1 2 3 4 5
2 more votes to show rating
add to favorites
launch autoscroll
font size
0
reset
how to read this tab
guitar tuner
backing track
0:00
0:00
Autoscroll
slow
fast
+/-
esc
set tempo
stop
Author
Difficulty
novice
-------------------------------------------------------------------------------
                             Check yes Juliet - We The Kings
-------------------------------------------------------------------------------
Tabbed by: Lucas
Email: lucasgraham@live.co.uk

Tuning: standard eBGDAE

Well, this is my first ever tab, and it sounds pretty good when i play it, so have
fun with this easy, yet awesome song.

Intro:
e|---------------------------------------------------------------------------|
B|---------3--------2--------3------2----------------------------------------|
G|--------------------------------------2----------------------x6------------|
D|-----0-------0--------0-------0-----------4--------------------------------|
A|---------------------------------------------------------------------------|
E|---------------------------------------------------------------------------|

Verse 1
e|---------------------------------------------------------------------------|
B|---------------------------------------------------------------------------|
G|---------------------------------------------------------------------------|
D|--------7-------------------4--------------------5-------------------------|
A|--------5-----x32-----------2-----x16------------5-------x16---------------|
E|-------------------------------------------------3-------------------------|
         PM                  PM                   PM

e|---------------------------------------------------------------------------|
B|---------------------------------------------------------------------------|
G|---------------------------------------------------------------------------|
D|--------7-------------------4--------------------5-------------------------|
A|--------5-----x32-----------2-----x16------------5-------x16---------------|
E|-------------------------------------------------3-------------------------|
         PM                  PM                   PM

                      [Pre Chorus]
   Lace up your shoes
   Ey oh ey oh
   Heres how we do
   RUN BABY RUN...


                      [Chorus]
e|---------------------------------------------------------------------------|
B|---------------------------------------------------------------------------|
G|---------------------------------------------------------------------------|
D|--4-4-4-4-4-4-4-4--7-7-7-7-7-7-7-7--5-5-5-5-5-5-5-5--7-7-7-7-7-7-7-7-------|
A|--2-2-2-2-2-2-2-2--5-5-5-5-5-5-5-5--5-5-5-5-5-5-5-5--7-7-7-7-7-7-7-7---x3--|
E|------------------------------------3-3-3-3-3-3-3-3--5-5-5-5-5-5-5-5-------|

 the last bit of the verse before the chorus

e|---------------------------------------------------------------------------|
B|---------------------------------------------------------------------------|
G|---------------------------------------------------------------------------|
D|--4-4-4-4-4-4-4-4--7-7-7-7-7-7-7-7--5-5-5-5-5-5-5-5--7~------7~------------|
A|--2-2-2-2-2-2-2-2--5-5-5-5-5-5-5-5--5-5-5-5-5-5-5-5--7~------7~------------|
E|------------------------------------3-3-3-3-3-3-3-3--5~------5~------------|


                    [Post Chorus]

e|------------------------------------------------------------------------------|
B|---------3--------2--------3------2-------------------------------------------|
G|--------------------------------------2----------------------x2---------------|
D|-----0-------0--------0-------0-----------4-----------------------------------|
A|------------------------------------------------------------------------------|
E|------------------------------------------------------------------------------|


Verse 2
e|---------------------------------------------------------------------------|
B|---------------------------------------------------------------------------|
G|---------------------------------------------------------------------------|
D|--------7-------------------4--------------------5-------------------------|
A|--------5-----x32-----------2-----x16------------5-------x16---------------|
E|-------------------------------------------------3-------------------------|
         PM                  PM                   PM


Verse 2
e|---------------------------------------------------------------------------|
B|---------------------------------------------------------------------------|
G|---------------------------------------------------------------------------|
D|--------7-------------------4--------------------5-------------------------|
A|--------5-----x32-----------2-----x16------------5-------x16---------------|
E|-------------------------------------------------3-------------------------|
         PM                  PM                   PM

                      [Pre Chorus]
   Lace up your shoes
   Ey oh ey oh
   Heres how we do
   RUN BABY RUN...

                      [Chorus]
e|---------------------------------------------------------------------------|
B|---------------------------------------------------------------------------|
G|---------------------------------------------------------------------------|
D|--4-4-4-4-4-4-4-4--7-7-7-7-7-7-7-7--5-5-5-5-5-5-5-5--7-7-7-7-7-7-7-7-------|
A|--2-2-2-2-2-2-2-2--5-5-5-5-5-5-5-5--5-5-5-5-5-5-5-5--7-7-7-7-7-7-7-7---x3--|
E|------------------------------------3-3-3-3-3-3-3-3--5-5-5-5-5-5-5-5-------|

 the last bit of the verse before the chorus

e|---------------------------------------------------------------------------|
B|---------------------------------------------------------------------------|
G|---------------------------------------------------------------------------|
D|--4-4-4-4-4-4-4-4--7-7-7-7-7-7-7-7--5-5-5-5-5-5-5-5--7~------7~------------|
A|--2-2-2-2-2-2-2-2--5-5-5-5-5-5-5-5--5-5-5-5-5-5-5-5--7~------7~------------|
E|------------------------------------3-3-3-3-3-3-3-3--5~------5~------------|

                    [Bridge]

e|------------------------------------------------------------------------------|
B|------------------------------------------------------------------------------|
G|-------------------------------7-7-7------------------------------------------|
D|---5---5---xxx---2---2---xxx---7-7-7--xxx---5---5---x--2~---------x2----------|
A|---5---5---xxx---2---2---xxx---5-5-5--xxx---5---5---x--2~---------------------|
E|---3---3---xxx---0---0---xxx----------xxx---3---3---x--0~---------------------|

                   [interlude]

e|------------------------------------------------------------------------------|
B|---------3--------2--------3------2-------------------------------------------|
G|--------------------------------------2----------------------x4---------------|
D|-----0-------0--------0-------0-----------4-----------------------------------|
A|------------------------------------------------------------------------------|
E|------------------------------------------------------------------------------|
                   [synthesizer - no guitar]

                   [bit after synthesizer]

e|---------------------------------------------------------------------------|
B|---------------------------------------------------------------------------|
G|---------------------------------------------------------------------------|
D|--4-4-4-4-4-4-4-4--7-7-7-7-7-7-7-7--5-5-5-5-5-5-5-5--7-7-7-7-7-7-7-7-------|
A|--2-2-2-2-2-2-2-2--5-5-5-5-5-5-5-5--5-5-5-5-5-5-5-5--7-7-7-7-7-7-7-7---x5--|
E|------------------------------------3-3-3-3-3-3-3-3--5-5-5-5-5-5-5-5-------|

e|---------------------------------------------------------------------------|
B|---------------------------------------------------------------------------|
G|---------------------------------------------------------------------------|
D|--4-4-4-4-4-4-4-4--7-7-7-7-7-7-7-7--5-5-5-5-5-5-5-5--7~------7~------------|
A|--2-2-2-2-2-2-2-2--5-5-5-5-5-5-5-5--5-5-5-5-5-5-5-5--7~------7~------------|
E|------------------------------------3-3-3-3-3-3-3-3--5~------5~------------|


Play intro riff till fade out.


e|---------------------------------------------------------------------------|
B|---------3--------2--------3------2----------------------------------------|
G|--------------------------------------2------------------------------------|
D|-----0-------0--------0-------0-----------4--------------------------------|
A|---------------------------------------------------------------------------|
E|---------------------------------------------------------------------------|


************************************

| /   slide up
| \   slide down
| h   hammer-on
| p   pull-off
| ~   vibrato
| +   harmonic
| x   Mute note
| b   Bend
| pb  Pre-bend
| br  Bend release
| pbr Pre-bend release
| brb Bend release bend

************************************
Suggest correction
Give kudos to tab author, rate the tab!
1 2 3 4 5
comments
print report bad tab
guest
You may want to rate the tab now too:
select rating
Wanna post a correction for this tab? Suggest correction