Oops, an error
Loading. Please wait.

Feel Good Inc Tab

version 1
version 1

Whole song

Interactive

3,080 views 1 this week
2 commentsread comments
1 2 3 4 5
please rate
add to favorites
launch autoscroll
font size
0
reset
how to read this tab
guitar tuner
Autoscroll
slow
fast
+/-
esc
set tempo
stop
Help us to improve Ultimate-Guitar.com Take our survey!
×
Title:Feel Good Inc.
Artist:We The Kings

Bass Part:
g----------------------------------------|
d----------------------------------------|
a----------------------------------------|
e--0---0-2-3-8-7---5--5-8-7-3-0----------|
Played all over the song.


Guitar Part:
Intro:
e---11--11--11--11--9--9--9--9------7--7--7--7--6--6--6--6------------------|
b-----11--11--11--11-11-11-11-11-----8--8--8--8--8--8--8--8-----------------|
g---------------------------------------------------------------------------|
d---------------------------------------------------------------------------|
a---------------------------------------------------------------------------|
e---------------------------------------------------------------------------|
Repeat 4x

Verse:
there is no guitar playing while in verse.

Chorus:
e-----6-------------------6-------------------------------------------------|
b-----7-------------------7-------------------------------------------------|
g-----8-------------------8-------------------------------------------------|
d-----8----8----6----8----8----8----6----8----------------------------------|
a-----6----8----6----8----6----8----6----8----------------------------------|
e----------6----4----6---------6----4----6----------------------------------|

Guitar Part:
e---------------------------------------------------------------------------|
b---------------------------------------------------------------------------|
g---------------------------------------------------------------------------|
d---2---2-4-5-10-9-----7---7-10-9-5-2---------------------------------------|
a---2---2-4-5-10-9-----7---7-10-9-5-2---------------------------------------|
e---0---0-2-3-8--7-----5---5--8-7-3-0---------------------------------------|

This part is distorted and played until the song ends..

im not so sure if this is 100% correct..but the way i play it..i think its 99.9% 
free to leave any comments..take it easy on leaving one coz ive juz play this song for 5 
luck ^^

Tabbed By:Gino Kilates
Email Add:geekhei7_1807@yahoo.com
Suggest correction What's this?
You can suggest a correction to this tab. Community and Mods will review your correction and vote to approve or reject it.
comments
We did not receive enough feedback on this tab! Please rate:
print report bad tab
1 2 3 4 5
2 comments total.
-2 reply
Volcom4137 418 wrote on April 24 2009, 04:14 pm

Bass:
G|----------------------------------|
D|----------------------------------|
A|----------------------------------|
D|-1--1-3-4--9-8~-6--6-9-8--4-1-1~--|

Guitar Outro:
e|------------------------------------------------|
B|------------------------------------------------|
G|------------------------------------------------|
D|-1--1-3-4--9-8-15-15-15--6--6-9-8--4-1-1--1-1-1-|
A|-1--1-3-4--9-8-----------6--6-9-8--4-1-1--1-1-1-|
D|-1--1-3-4--9-8-----------6--6-9-8--4-1-1--1-1-1-|

+2 reply
Volcom4137 418 wrote on April 24 2009, 04:18 pm

You had the right progressions they just weren't the right notes. They should all be played a half step down.

I want to post or [tab]
guest
You may want to rate the tab now too:
select rating
Please do not post tabs as comments. Select "correction" instead!