Oops, an error
Loading. Please wait.

Heaven Can Wait Tab

version 3
version 3

Whole song

Interactive

Video

3,025 views 1 this week
no commentswrite comment
1 2 3 4 5
please rate
add to favorites
launch autoscroll
font size
0
reset
how to read this tab
guitar tuner
Autoscroll
slow
fast
+/-
esc
set tempo
stop
Help us to improve Ultimate-Guitar.com Take our survey!
×
Author
Difficulty
Tuning
kochmj 34
intermediate
D A D G B E
I take no credit fir this tab! I took the first acoustic tab and just moved everything 
down one fret to eliminate the need to tune to Drop C# because that's annoying.

RHYTHM
Intro part1:
e|----x------x---------|
B|----x------x---------|
G|----7------9---------|
D|----8-----10---------|
A|----8-----10---------|
D|----8-----10---------|


Intro part2:
e|----x-----x------x------x----|
B|----x-----x------x------x----|
G|----x-----7------9------7----|
D|----3-----8-----10------8----|
A|----3-----8-----10------8----|
D|----3-----8-----10------8----|


e|----x-----x------x--x--x--------|
B|----x-----x------x--x--x--------|
G|----x-----7------9--9--9--------|
D|----3-----8-----10-10-10--------|
A|----3-----8-----10-10-10--------|
D|----3-----8-----10-10-10--------|


VERSE:
e|----x-----x-----x------x-----x----|
B|----x-----x-----x------x-----x----|
G|----x-----x-----x------x-----x----|
D|----8----10-----7-----12----10----|x3
A|----8----10-----7-----12----10----|
D|----8----10-----7-----12----10----|


e|----x------x-----|
B|----x------x-----|
G|----x------x-----|
D|----8-----10-----|
A|----8-----10-----|
D|----8-----10-----|


CHORUS:
Heaven can wait...
e|----x-----x-----x------x----|
B|----x-----x-----x------x----|
G|----x-----x-----x------x----|
D|----3----10-----8-----10----|x2
A|----3----10-----8-----10----|
D|----3----10-----8-----10----|


Lay your heart next to mine...
e|----x-----x-----x------x----|
B|----x-----x-----x------x----|
G|----x-----x-----x------x----|
D|----3----10-----7------8----|
A|----3----10-----7------8----|
D|----3----10-----7------8----|


Tell me you want....
e|----x-----x-----x------x----|
B|----x-----x-----x------x----|
G|----x-----x-----x------x----|
D|----3----10-----8-----10----|
A|----3----10-----8-----10----|
D|----3----10-----8-----10----|
                      (ring)

REPEAT
VERSE & CHORUS

Now REPEAT INTRO part 2

Now play all of this and let every one of it ring
e|----x------x-----x------x------x-----x------x----|
B|----x------x-----x------x------x-----x------x----|
G|----7------9-----5-----10------9-----7------9----|
D|----8-----10-----7-----12-----10-----8-----10----|
A|----8-----10-----7-----12-----10-----8-----10----|
D|----8-----10-----7-----12-----10-----8-----10----|
                                           (strum)

Play Chorus
Play Intro part 2


Do this for the last part
e|----x------x------x-------|
B|----x------x------x-------|
G|----7------9------x-------|
D|----8-----10------3-------|
A|----8-----10------3-------|
D|----8-----10------3-------|

NOTE: CHORUS can also be played with this one...(but the one on top sounds better for me).

Heaven can wait...
e|----x-----x-----x------x-------|
B|----x-----x-----x------x-------|
G|----x-----9-----7------9-------|
D|----3----10-----8-----10-------|x2
A|----3----10-----8-----10-------|
D|----3----10-----8-----10-------|


Lay your heart next to mine...
e|----x-----x-----x------x----|
B|----x-----x-----x------x----|
G|----x-----9-----5------7----|
D|----3----10-----7------8----|
A|----3----10-----7------8----|
D|----3----10-----7------8----|


LEAD GUITAR:
I can't tab the whole lead part but this can help you with it.
This one goes with Intro part 2 of the rhythm

e|----8-5h6-8-6-5--5h6-8-6-5-8-5h6-8-6-5-6-5---------|
B|-----6---------8------------6---------8---8-6------|
G|---------------------------------------------------|
D|---------------------------------------------------|
A|---------------------------------------------------|
D|---------------------------------------------------|


VERSE:
e|-------------------|
B|----8-5-10-8-6-----|
G|-------------------|
D|-------------------|x2
A|-------------------|
D|-------------------|


CHORUS:
Lay your heart next to mine...
e|--------------------------------------------|
B|----13s6s13s6s10-10-10-11-10-8-6------------|
G|--------------------------------------------|
D|--------------------------------------------|
A|--------------------------------------------|
D|--------------------------------------------|
Suggest correction new What's this?
You can suggest a correction to this tab. Community and Mods will review your correction and vote to approve or reject it.
comments
We did not receive enough feedback on this tab! Please rate:
print report bad tab
1 2 3 4 5
guest
You may want to rate the tab now too:
select rating
Please do not post tabs as comments. Select "correction" instead!