Oops, an error
Loading. Please wait.

Heaven Can Wait Tab

version 4
version 4

Whole song

Interactive

Video

8,341 views 3 this week
no commentswrite comment
1 2 3 4 5
x 4
add to favorites
launch autoscroll
font size
0
reset
how to read this tab
guitar tuner
Autoscroll
slow
fast
+/-
esc
set tempo
stop
Help us to improve Ultimate-Guitar.com Take our survey!
×
Author
       -----------------------------------------------------------------
                       HEAVEN CAN WAIT - We The Kings
       -----------------------------------------------------------------

Tabbed by: AnnoyingXP
Email: annoyingXP@hotmail.com

This song is amazing and i just had to tab it out. I tabbed out the chords and the 
but i'm not sure if i got everything. Also, idk if everything is right, so if you see 
wrong in here, please contact me at my email. Thank you.


*Please note that not all 3 guitars are in most of the song*
**Also, guitar 1 is not always at the top**


LINK FOR THE SONG: http://www.youtube.com/watch?v=-iInoyhz_iA


Tuning: Standard EADGBe

Guitar 1: Chords
Guitar 2: Melody
Guitar 3: Melody/Solo

CHORDS USED:
F   - 133211
C   - x32010
Am  - x02210
Dm  - xx0231
A#  - x13331
C2  - x3555x
Am2 - 577555
Dm2 - x57765

SYMBOLS USED:
x - do not play the string
/ - slide up
V - strum down
^ - strum up
~ - let it ring
h - hammer-on
p - pull-off
y - lift finger


         INTRO

Guitar 3:

e|--------5------------------|
B|-6--6-8---8-6---6--6-8-5-5-|
G|--------------5------------|


Guitar 1:

e|----------------5--5-6-3-3-|
B|---------------------------|
G|---------------------------|


Guitar 2:

e|---------------------------------|
B|-6---6---6---6---6---6---5---5---|
G|---5---5---5---5---5---5---5---5-|
D|---------------------------------|


 *0:07*

Guitar 1:
   F             A#            C2            A#
   V  V ^  ^ V ^ V  V ^  ^ V ^ V  V ^  ^ V ^ V  V ^  ^ V ^
e|-1--1-1--1-1-1-1--1-1--1-1-1-x--x-x--x-x-x-1--1-1--1-1-1-|
B|-1--1-1--1-1-1-3--3-3--3-3-3-5--5-5--5-5-5-3--3-3--3-3-3-|
G|-2--2-2--2-2-2-3--3-3--3-3-3-5--5-5--5-5-5-3--3-3--3-3-3-|
D|-3--3-3--3-3-3-3--3-3--3-3-3-5--5-5--5-5-5-3--3-3--3-3-3-|
A|-3--3-3--3-3-3-1--1-1--1-1-1-3--3-3--3-3-3-1--1-1--1-1-1-|
E|-1--1-1--1-1-1-x--x-x--x-x-x-x--x-x--x-x-x-x--x-x--x-x-x-|


Guitar 3:

e|-8----5-6-8--6--5-|
B|----6-------------|  x2
G|------------------|

e|-8----5-6-8--6--5-----5/6--5-------|
B|----6-------------8----------8--6~-|
G|-----------------------------------|


         VERSE 1

Guitar 1:
   A#              C2              Am2             Dm2     C2
   V   V   V ^ V ^ V   V   V ^ V ^ V   V   V ^ V ^ V   V ^ V   V ^
e|-1-y-1-y-1-1-1-1-x-y-x-y-x-x-x-x-5-y-5-y-5-5-5-5-5-y-5-5-x-y-x-x-|
B|-3-y-3-y-3-3-3-3-5-y-5-y-5-5-5-5-5-y-5-y-5-5-5-5-6-y-6-6-5-y-5-5-|
G|-3-y-3-y-3-3-3-3-5-y-5-y-5-5-5-5-5-y-5-y-5-5-5-5-7-y-7-7-5-y-5-5-|  x3
D|-3-y-3-y-3-3-3-3-5-y-5-y-5-5-5-5-7-y-7-y-7-7-7-7-7-y-7-7-5-y-5-5-|
A|-1-y-1-y-1-1-1-1-3-y-3-y-3-3-3-3-7-y-7-y-7-7-7-7-5-y-5-5-3-y-3-3-|
E|-x-y-x-y-x-x-x-x-x-y-x-y-x-x-x-x-5-y-5-y-5-5-5-5-x-y-x-x-x-y-x-x-|

   A#              C2
   V   V   V ^ V ^ V
e|-1-y-1-y-1-1-1-1-x--|
B|-3-y-3-y-3-3-3-3-5~-|
G|-3-y-3-y-3-3-3-3-5~-|
D|-3-y-3-y-3-3-3-3-5~-|
A|-1-y-1-y-1-1-1-1-3~-|
E|-x-y-x-y-x-x-x-x-x--|


Guitar 2: come in when he sings 'Here's a song for when we talk too much'

e|----------------------------------|
B|-6-6-6-6-5-5-5-5-5-5-5-5-6-6-5-5--|
G|--5-5-5-5-5-5-5-5-5-5-5-5-5-5-5-5-|
D|----------------------------------|

e|------------|
B|-6-6-6-6-5~-|
G|--5-5-5-5---|
D|------------|

         CHORUS

Guitar 1:
   F               Dm              A#              C
   V ^ V ^ V ^ V ^ V ^ V ^ V ^ V ^ V ^ V ^ V ^ V ^ V ^ V ^ V ^ V ^
e|-1-1-1-1-1-1-1-1-1-1-1-1-1-1-1-1-1-1-1-1-1-1-1-1-0-0-0-0-0-0-0-0-|
B|-1-1-1-1-1-1-1-1-3-3-3-3-3-3-3-3-3-3-3-3-3-3-3-3-1-1-1-1-1-1-1-1-|
G|-2-2-2-2-2-2-2-2-2-2-2-2-2-2-2-2-3-3-3-3-3-3-3-3-0-0-0-0-0-0-0-0-|  x2
D|-3-3-3-3-3-3-3-3-0-0-0-0-0-0-0-0-3-3-3-3-3-3-3-3-2-2-2-2-2-2-2-2-|
A|-3-3-3-3-3-3-3-3-x-x-x-x-x-x-x-x-1-1-1-1-1-1-1-1-3-3-3-3-3-3-3-3-|
E|-1-1-1-1-1-1-1-1-x-x-x-x-x-x-x-x-x-x-x-x-x-x-x-x-x-x-x-x-x-x-x-x-|

   F             Dm            Am            A#
   V  V ^  ^ V ^ V  V ^  ^ V ^ V  V ^  ^ V ^ V  V ^  ^ V ^
e|-1--1-1--1-1-1-1--1-1--1-1-1-0--0-0--0-0-0-1--1-1--1-1-1-|
B|-1--1-1--1-1-1-3--3-3--3-3-3-1--1-1--1-1-1-3--3-3--3-3-3-|
G|-2--2-2--2-2-2-2--2-2--2-2-2-2--2-2--2-2-2-3--3-3--3-3-3-|
D|-3--3-3--3-3-3-0--0-0--0-0-0-2--2-2--2-2-2-3--3-3--3-3-3-|
A|-3--3-3--3-3-3-x--x-x--x-x-x-0--0-0--0-0-0-1--1-1--1-1-1-|
E|-1--1-1--1-1-1-x--x-x--x-x-x-x--x-x--x-x-x-x--x-x--x-x-x-|

   F             Dm            A#            C2
   V  V ^  ^ V ^ V  V ^  ^ V ^ V  V ^  ^ V ^ V
e|-1--1-1--1-1-1-1--1-1--1-1-1-1--1-1--1-1-1-x--|
B|-1--1-1--1-1-1-3--3-3--3-3-3-3--3-3--3-3-3-5~-|
G|-2--2-2--2-2-2-2--2-2--2-2-2-3--3-3--3-3-3-5~-|
D|-3--3-3--3-3-3-0--0-0--0-0-0-3--3-3--3-3-3-5~-|
A|-3--3-3--3-3-3-x--x-x--x-x-x-1--1-1--1-1-1-3~-|
E|-1--1-1--1-1-1-x--x-x--x-x-x-x--x-x--x-x-x-x--|


Guitar 2: come in with the chords

e|----------5------------------------|
B|-6---6--8---8--6---6---6---5---5---|  x2
G|---5-------------5---5---5---5---5-|
D|-----------------------------------|

e|----------5------------------------|
B|-6---6--8---8--6---5---5---6---6---|
G|---5-------------5---5---5---5---5-|
D|-----------------------------------|

e|----------5------------------|
B|-6---6--8---8--6---6---6---5-|
G|---5-------------5---5---5---|
D|-----------------------------|

         VERSE 2

Guitar 1:
   A#              C2              Am2             Dm2     C2
   V   V   V ^ V ^ V   V   V ^ V ^ V   V   V ^ V ^ V   V ^ V   V ^
e|-1-y-1-y-1-1-1-1-x-y-x-y-x-x-x-x-5-y-5-y-5-5-5-5-5-y-5-5-x-y-x-x-|
B|-3-y-3-y-3-3-3-3-5-y-5-y-5-5-5-5-5-y-5-y-5-5-5-5-6-y-6-6-5-y-5-5-|
G|-3-y-3-y-3-3-3-3-5-y-5-y-5-5-5-5-5-y-5-y-5-5-5-5-7-y-7-7-5-y-5-5-|  x3
D|-3-y-3-y-3-3-3-3-5-y-5-y-5-5-5-5-7-y-7-y-7-7-7-7-7-y-7-7-5-y-5-5-|
A|-1-y-1-y-1-1-1-1-3-y-3-y-3-3-3-3-7-y-7-y-7-7-7-7-5-y-5-5-3-y-3-3-|
E|-x-y-x-y-x-x-x-x-x-y-x-y-x-x-x-x-5-y-5-y-5-5-5-5-x-y-x-x-x-y-x-x-|

   A#              C2
   V   V   V ^ V ^ V
e|-1-y-1-y-1-1-1-1-x--|
B|-3-y-3-y-3-3-3-3-5~-|
G|-3-y-3-y-3-3-3-3-5~-|
D|-3-y-3-y-3-3-3-3-5~-|
A|-1-y-1-y-1-1-1-1-3~-|
E|-x-y-x-y-x-x-x-x-x--|

GUITAR 2: come in with the chords

e|----------------------------------|
B|-6-6-6-6-5-5-5-5-5-5-5-5-6-6-5-5--|  x3
G|--5-5-5-5-5-5-5-5-5-5-5-5-5-5-5-5-|
D|----------------------------------|

e|------------|
B|-6-6-6-6-5~-|
G|--5-5-5-5---|
D|------------|

         CHORUS

Guitar 1:
   F               Dm              A#              C
   V ^ V ^ V ^ V ^ V ^ V ^ V ^ V ^ V ^ V ^ V ^ V ^ V ^ V ^ V ^ V ^
e|-1-1-1-1-1-1-1-1-1-1-1-1-1-1-1-1-1-1-1-1-1-1-1-1-0-0-0-0-0-0-0-0-|
B|-1-1-1-1-1-1-1-1-3-3-3-3-3-3-3-3-3-3-3-3-3-3-3-3-1-1-1-1-1-1-1-1-|
G|-2-2-2-2-2-2-2-2-2-2-2-2-2-2-2-2-3-3-3-3-3-3-3-3-0-0-0-0-0-0-0-0-|  x2
D|-3-3-3-3-3-3-3-3-0-0-0-0-0-0-0-0-3-3-3-3-3-3-3-3-2-2-2-2-2-2-2-2-|
A|-3-3-3-3-3-3-3-3-x-x-x-x-x-x-x-x-1-1-1-1-1-1-1-1-3-3-3-3-3-3-3-3-|
E|-1-1-1-1-1-1-1-1-x-x-x-x-x-x-x-x-x-x-x-x-x-x-x-x-x-x-x-x-x-x-x-x-|

   F             Dm            Am            A#
   V  V ^  ^ V ^ V  V ^  ^ V ^ V  V ^  ^ V ^ V  V ^  ^ V ^
e|-1--1-1--1-1-1-1--1-1--1-1-1-0--0-0--0-0-0-1--1-1--1-1-1-|
B|-1--1-1--1-1-1-3--3-3--3-3-3-1--1-1--1-1-1-3--3-3--3-3-3-|
G|-2--2-2--2-2-2-2--2-2--2-2-2-2--2-2--2-2-2-3--3-3--3-3-3-|
D|-3--3-3--3-3-3-0--0-0--0-0-0-2--2-2--2-2-2-3--3-3--3-3-3-|
A|-3--3-3--3-3-3-x--x-x--x-x-x-0--0-0--0-0-0-1--1-1--1-1-1-|
E|-1--1-1--1-1-1-x--x-x--x-x-x-x--x-x--x-x-x-x--x-x--x-x-x-|

   F             Dm            A#            C2
   V  V ^  ^ V ^ V  V ^  ^ V ^ V  V ^  ^ V ^ V ^ V ^ V ^ V ^
e|-1--1-1--1-1-1-1--1-1--1-1-1-1--1-1--1-1-1-x-x-x-x-x-x-x-x-|
B|-1--1-1--1-1-1-3--3-3--3-3-3-3--3-3--3-3-3-5-5-5-5-5-5-5-5-|
G|-2--2-2--2-2-2-2--2-2--2-2-2-3--3-3--3-3-3-5-5-5-5-5-5-5-5-|
D|-3--3-3--3-3-3-0--0-0--0-0-0-3--3-3--3-3-3-5-5-5-5-5-5-5-5-|
A|-3--3-3--3-3-3-x--x-x--x-x-x-1--1-1--1-1-1-3-3-3-3-3-3-3-3-|
E|-1--1-1--1-1-1-x--x-x--x-x-x-x--x-x--x-x-x-x-x-x-x-x-x-x-x-|


Guitar 2: come in with the chords

e|----------5------------------------|
B|-6---6--8---8--6---6---6---5---5---|  x2
G|---5-------------5---5---5---5---5-|
D|-----------------------------------|

e|----------5------------------------|
B|-6---6--8---8--6---5---5---6---6---|
G|---5-------------5---5---5---5---5-|
D|-----------------------------------|

e|----------5-------------------------|
B|-6---6--8---8--6---6---6---5---5----|
G|---5-------------5---5---5---5---5~-|
D|------------------------------------|


         SOLO

Guitar 3: come in after 'heaven' in ''cause heaven can wait' in the chorus

e|-----5-6-8-----5-6-8--6--5-5h6p5----5-6-8--6--5-|
B|-6-8--------6--------------------8--------------|
G|------------------------------------------------|


e|-7/8-----5-6-8--6--5-5h6p5----5/6--5-------|
B|------6--------------------8----------8-6~-|
G|-------------------------------------------|


Guitar 1:
   F             A#            C2            A#
   V  V ^  ^ V ^ V  V ^  ^ V ^ V  V ^  ^ V ^ V  V ^  ^ V ^
e|-1--1-1--1-1-1-1--1-1--1-1-1-x--x-x--x-x-x-1--1-1--1-1-1-|
B|-1--1-1--1-1-1-3--3-3--3-3-3-5--5-5--5-5-5-3--3-3--3-3-3-|
G|-2--2-2--2-2-2-3--3-3--3-3-3-5--5-5--5-5-5-3--3-3--3-3-3-|
D|-3--3-3--3-3-3-3--3-3--3-3-3-5--5-5--5-5-5-3--3-3--3-3-3-|
A|-3--3-3--3-3-3-1--1-1--1-1-1-3--3-3--3-3-3-1--1-1--1-1-1-|
E|-1--1-1--1-1-1-x--x-x--x-x-x-x--x-x--x-x-x-x--x-x--x-x-x-|

   F             A#            C2            A#
   V  V ^  ^ V ^ V  V ^  ^ V ^ V  V ^  ^ V ^ V ^ V ^ V ^ V ^
e|-1--1-1--1-1-1-1--1-1--1-1-1-x--x-x--x-x-x-1-1-1-1-1-1-1-1-|
B|-1--1-1--1-1-1-3--3-3--3-3-3-5--5-5--5-5-5-3-3-3-3-3-3-3-3-|
G|-2--2-2--2-2-2-3--3-3--3-3-3-5--5-5--5-5-5-3-3-3-3-3-3-3-3-|
D|-3--3-3--3-3-3-3--3-3--3-3-3-5--5-5--5-5-5-3-3-3-3-3-3-3-3-|
A|-3--3-3--3-3-3-1--1-1--1-1-1-3--3-3--3-3-3-1-1-1-1-1-1-1-1-|
E|-1--1-1--1-1-1-x--x-x--x-x-x-x--x-x--x-x-x-x-x-x-x-x-x-x-x-|

   A#      C2           Am2      Dm2      C2
   V        V            V        V        V
e|-1~-|  e|-x--|      e|-x--|  e|-x--|  e|-x--|
B|-3~-|  B|-5~-|      B|-5~-|  B|-6~-|  B|-5~-|
G|-3~-|  G|-5~-|      G|-5~-|  G|-7~-|  G|-5~-|
D|-3~-|  D|-5~-|      D|-7~-|  D|-7~-|  D|-5~-|
A|-1~-|  A|-3~-|      A|-7~-|  A|-5~-|  A|-3~-|
E|-x--|  E|-x--|      E|-5~-|  E|-x--|  E|-x--|

   Here's a song for the nights I drink too much

     A#       C2
  e|-1~-|  e|-x--|
  B|-3~-|  B|-5~-|
  G|-3~-|  G|-5~-|
  D|-3~-|  D|-5~-|
  A|-1~-|  A|-3~-|
  E|-x--|  E|-x--|

And spill my words

CHORUS

Guitar 1:
   F               Dm              A#              C
   V ^ V ^ V ^ V ^ V ^ V ^ V ^ V ^ V ^ V ^ V ^ V ^ V ^ V ^ V ^ V ^
e|-1-1-1-1-1-1-1-1-1-1-1-1-1-1-1-1-1-1-1-1-1-1-1-1-0-0-0-0-0-0-0-0-|
B|-1-1-1-1-1-1-1-1-3-3-3-3-3-3-3-3-3-3-3-3-3-3-3-3-1-1-1-1-1-1-1-1-|
G|-2-2-2-2-2-2-2-2-2-2-2-2-2-2-2-2-3-3-3-3-3-3-3-3-0-0-0-0-0-0-0-0-|  x2
D|-3-3-3-3-3-3-3-3-0-0-0-0-0-0-0-0-3-3-3-3-3-3-3-3-2-2-2-2-2-2-2-2-|
A|-3-3-3-3-3-3-3-3-x-x-x-x-x-x-x-x-1-1-1-1-1-1-1-1-3-3-3-3-3-3-3-3-|
E|-1-1-1-1-1-1-1-1-x-x-x-x-x-x-x-x-x-x-x-x-x-x-x-x-x-x-x-x-x-x-x-x-|

   F             Dm            Am            A#
   V  V ^  ^ V ^ V  V ^  ^ V ^ V  V ^  ^ V ^ V  V ^  ^ V ^
e|-1--1-1--1-1-1-1--1-1--1-1-1-0--0-0--0-0-0-1--1-1--1-1-1-|
B|-1--1-1--1-1-1-3--3-3--3-3-3-1--1-1--1-1-1-3--3-3--3-3-3-|
G|-2--2-2--2-2-2-2--2-2--2-2-2-2--2-2--2-2-2-3--3-3--3-3-3-|
D|-3--3-3--3-3-3-0--0-0--0-0-0-2--2-2--2-2-2-3--3-3--3-3-3-|
A|-3--3-3--3-3-3-x--x-x--x-x-x-0--0-0--0-0-0-1--1-1--1-1-1-|
E|-1--1-1--1-1-1-x--x-x--x-x-x-x--x-x--x-x-x-x--x-x--x-x-x-|

   F             Dm              A#              C2
   V  V ^  ^ V ^ V ^ V ^ V ^ V ^ V ^ V ^ V ^ V ^ V ^ V ^ V ^ V ^
e|-1--1-1--1-1-1-1-1-1-1-1-1-1-1-1-1-1-1-1-1-1-1-x-x-x-x-x-x-x-x-|
B|-1--1-1--1-1-1-3-3-3-3-3-3-3-3-3-3-3-3-3-3-3-3-5-5-5-5-5-5-5-5-|
G|-2--2-2--2-2-2-3-3-3-3-3-3-3-3-3-3-3-3-3-3-3-3-5-5-5-5-5-5-5-5-|
D|-3--3-3--3-3-3-0-0-0-0-0-0-0-0-3-3-3-3-3-3-3-3-5-5-5-5-5-5-5-5-|
A|-3--3-3--3-3-3-x-x-x-x-x-x-x-x-1-1-1-1-1-1-1-1-3-3-3-3-3-3-3-3-|
E|-1--1-1--1-1-1-x-x-x-x-x-x-x-x-x-x-x-x-x-x-x-x-x-x-x-x-x-x-x-x-|


Guitar 2: come in with the chords

e|----------5------------------------|
B|-6---6--8---8--6---6---6---5---5---|  x2
G|---5-------------5---5---5---5---5-|
D|-----------------------------------|

e|----------5------------------------|
B|-6---6--8---8--6---5---5---6---6---|
G|---5-------------5---5---5---5---5-|
D|-----------------------------------|

e|----------5-------------------------|
B|-6---6--8---8--6---6---6---5---5----|
G|---5-------------5---5---5---5---5~-|
D|------------------------------------|

 *2:52*


Guitar 3: come in right after ''cause heaven can wait'

e|-7/8----5-6-8--6--5-----5-6-8--6--5-|
B|------6-------------8---------------|
G|------------------------------------|


e|-8----5-6-8--6--5-----5/6~------------|
B|----6-------------8----------5~----6~-|
G|--------------------------------------|


Guitar 1:
   F             A#            C2            A#
   V  V ^  ^ V ^ V  V ^  ^ V ^ V  V ^  ^ V ^ V  V ^  ^ V ^
e|-1--1-1--1-1-1-1--1-1--1-1-1-x--x-x--x-x-x-1--1-1--1-1-1-|
B|-1--1-1--1-1-1-3--3-3--3-3-3-5--5-5--5-5-5-3--3-3--3-3-3-|
G|-2--2-2--2-2-2-3--3-3--3-3-3-5--5-5--5-5-5-3--3-3--3-3-3-|
D|-3--3-3--3-3-3-3--3-3--3-3-3-5--5-5--5-5-5-3--3-3--3-3-3-|
A|-3--3-3--3-3-3-1--1-1--1-1-1-3--3-3--3-3-3-1--1-1--1-1-1-|
E|-1--1-1--1-1-1-x--x-x--x-x-x-x--x-x--x-x-x-x--x-x--x-x-x-|

   F             A#            C2            A#  C2  F
   V  V ^  ^ V ^ V  V ^  ^ V ^ V  V ^  ^ V ^ V   V   V
e|-1--1-1--1-1-1-1--1-1--1-1-1-x--x-x--x-x-x-1~--x---1~-|
B|-1--1-1--1-1-1-3--3-3--3-3-3-5--5-5--5-5-5-3~--5~--1~-|
G|-2--2-2--2-2-2-3--3-3--3-3-3-5--5-5--5-5-5-3~--5~--2~-|
D|-3--3-3--3-3-3-3--3-3--3-3-3-5--5-5--5-5-5-3~--5~--3~-|
A|-3--3-3--3-3-3-1--1-1--1-1-1-3--3-3--3-3-3-1~--3~--3~-|
E|-1--1-1--1-1-1-x--x-x--x-x-x-x--x-x--x-x-x-x---x---1~-|


      ------------------------------END------------------------------

LYRICS

Here's a song for the nights I think too much
And here's a song when I imagine us together
Here's a song for when we talk
Too much and I forget my words

Heaven can wait up high in the sky
It's you and I
Heaven can wait deep down in your eyes
I'm yours tonight
Lay your heart next to mine
I feel so alive
Tell me you want me to stay, forever
'Cause heaven can wait

Here's a song for the one who stole my heart
And ran so far that cupid couldn't catch her
Here's a song for the kid who aims so high
He shot her down

Heaven can wait up high in the sky
It's you and I
Heaven can wait deep down in your eyes
I'm yours tonight
Lay your heart next to mine
I feel so alive
Tell me you want me to stay forever
'Cause heaven can wait

Here's a song for the nights
I drink too much and spill my words

Heaven can wait up high in the sky
It's you and I
Heaven can wait deep down in your eyes
I'm yours tonight
Lay your heart next to mine
I feel so alive
Tell me you want me to stay forever
'Cause heaven can wait

'Cause heaven can wait
'Cause heaven can wait
Suggest correction
comments
print report bad tab
guest
You may want to rate the tab now too:
select rating
Wanna post a correction for this tab? Suggest correction