Oops, an error
Loading. Please wait.

Rain Falls Down Tab

version 1
version 1

Intro

Whole song

3,834 views 1 this week
no commentswrite comment
1 2 3 4 5
1 last vote to show rating
add to favorites
launch autoscroll
font size
0
reset
how to read this tab
guitar tuner
Autoscroll
slow
fast
+/-
esc
set tempo
stop
Help us to improve Ultimate-Guitar.com Take our survey!
×
Author
Difficulty
novice
Tuning: Standard
Tabbed by: hero904 (Adan)
I tabbed the intro and chorus. I will get to the solo as soon as possible. Listen to the 
to get the feel of how many times you strum each note for the intro and verse. I think 
is about 14x.

The little Guitar 2 ting is actually a little lower than in the song but it still sounds good.

Intro/Verse:
Guitar 1/ Lead
e|-----------------------------------|
B|-7-(14x)-5-(14x)-10-(14x)-3-(14x)--|
G|-----------------------------------| 4x
D|-----------------------------------|
A|-----------------------------------|
E|-----------------------------------|

Guitar 2/ Rhythm
"I'm only sure one thing, that's you rite now.."
|-----2-----------2---------------------|
|---3-----------3-----------------------|
|-2-----------2-------------------------|
|---------------------------------------|
|---------------------------------------|
|---------------------------------------|

"I hear your voice and what we talk about..."
|-----3-----------3---------------------|
|---3-----------3-----------------------|
|-2-----------2-------------------------|
|---------------------------------------|
|---------------------------------------|
|---------------------------------------|

"And I'm trying to say what wont come out..."
|-----5-----------5---------------------|
|---3-----------3-----------------------|
|-2-----------2-------------------------|
|---------------------------------------|
|---------------------------------------|
|---------------------------------------|

Yeah I'm tryin to fix this broken mouth
|-----0-----------0---------------------|
|---3-----------3-----------------------|
|-2-----------2-------------------------|
|---------------------------------------|
|---------------------------------------|
|---------------------------------------|

Chorus:
Lead Guitar: (You can either let the last chord ring or strum it around 8 times)
|-------------------------------|
|-------------------------------|
|-11-----9------7~~-------------|
|-x--3x--x--3x--x~~-------------| 3x
|-9------7------5~~-------------|
|-------------------------------|

|-------------------------------|
|-------------------------------|
|-9------7------6~~-------------|
|-x--3x--x--3x--x~~-------------| 1x
|-7------5------4~~-------------|
|-------------------------------|

Then Do That ^^2 Times^^

Rythem Guitar:
|-----------------------------------|
|-----------------------------------|
|-9---------------7-----------------|
|-9--16x--5--16x--7--16x--7--16x----| 2x
|-7-------5-------5-------7---------|
|---------3---------------5---------|
Suggest correction
Give kudos to tab author, rate the tab!
1 2 3 4 5
comments
print report bad tab
guest
You may want to rate the tab now too:
select rating
Wanna post a correction for this tab? Suggest correction