Oops, an error
Loading. Please wait.

Say You Like Me Chords

version 4
version 4
5,710 views 1 this week
no commentswrite comment
1 2 3 4 5
please rate
add to favorites
launch autoscroll
font size
0
reset
transpose
0
reset
simplify chords
display chords
guitar tuner
Tab Pro tools
  • play this tab
  • loop segment
  • change instrument
  • show fretboard
  • metronome
×
Best way to learn
"Say You Like Me"
Autoscroll
slow
fast
+/-
esc
set tempo
stop
Contributor
Difficulty
novice
-------------------------------------------------------------------------------
			     SONG NAME - Band Name
Say you like me- we the kings
-------------------------------------------------------------------------------
Tabbed by:Robin Daniel
Email:Robinizer3@yahoo.com

Tuning: Standard

‘READ THE NOTES THEY’LL HELP YOU

Cords:

  C   D   G      Bm  Gm   Cadd9  ,  F
e|0---3---3--|---2--3------3--------1-----------------------|
B|1---2---3--|---3--3------3--------1-----------------------|
G|0---3---0--|---4--4------0--------2-----------------------|
D|2---0---0--|---0--0------2--------3-----------------------|
A|3---0---2--| --x--0------3--------x-----------------------|
E|0---0---3--|---x--x------x--------x-----------------------|

****** look at Bm and Gm cause theyr alittle different than the way you may know them, 
for this song that’s how you will play them******************

Verse:
I wish my heart was always on her mind
        C  C          D  D         G G G G
Cause shes on mine like all day all the time
        C   C	       D   D        G G G G
Forget me not forget me now
 C      C       D        D
Iv come to far to turn around, Im here tonight
    Bm             Gm    D      C          G

Chorus:

Cause Im never going down
                       Cadd9
Im never giving up im never gonna leave
				     G
 so put your hands up  					(x2)

if you like me then say you like me

             E                    D
Whoa oh oh oh
           Cadd9
whoa oh oh oh
            G
Whoa  oh oh oh
            E
Whoa oh oh oh
            D



Verse2:
Shes that girl that no one ever knows
        C  C          D  D         G G G G
Works a double just to buy her cloths
        C   C	       D   D        G G G G
Nicotine and faded dreams
 C      C       D        D
Baby just belive theres no one else like me
    Bm             Gm    D      C         G (strum g 8 times then chorus)


  Chorus:

Cause Im never going down
                       Cadd9
Im never giving up im never gonna leave
				     G
 so put your hands up  					(x2)

if you like me then say you like me

             E                    D
Whoa oh oh oh
           Cadd9
whoa oh oh oh
            G
Whoa  oh oh oh
            E
Whoa oh oh oh
            D
Bridge:
It’s time to fall, into my arms cause I’v been waiting for to long
	      E		     D              Cadd9         G     F   C

Your an angel grab your halo and lets fly tonight
      E			   D 		Cadd9  G

After bridge before chorus:

    C5   2   		    Em      4  *** I called them 2 and 4 cause they had no names**
e|---------------------------------------------------------------------------|
B|--------------------------8------7-----------------------------------------|
G|---5---4------------------9------7-----------------------------------------|
D|---5---5------------------9------x-----------------------------------------|
A|---3---3------------------7------5-----------------------------------------|
E|---------------------------------------------------------------------------|




***** this part is kinda conmplicated but watch this at 2:52 
http://www.youtube.com/watch?v=PbqxS7daDu8 it should help******

Cause I’m never going down im never giving up im never gonna leave so put
( c5 play 4 times the 3rd im) ( play the second cord 4times until “up”)
your hands up if you like me then say you like me
( Em play until “say”)   (play the 4th cord until me)
(x2)


 last Chorus:

Cause Im never going down
                       Cadd9
Im never giving up im never gonna leave
				     G
 so put your hands up  					(x2)

if you like me then say you like me

             E                    D
Whoa oh oh oh
           Cadd9
whoa oh oh oh
            G
Whoa  oh oh oh
            E
Whoa oh oh oh
            D
Just say you like me……
    		    G


************************************

| /   slide up
| \   slide down
| h   hammer-on
| p   pull-off
| ~   vibrato
| +   harmonic
| x   Mute note
| b   Bend
| pb  Pre-bend
| br  Bend release
| pbr Pre-bend release
| brb Bend release bend

************************************
comments
We did not receive enough feedback on this tab! Please rate:
print report bad tab
1 2 3 4 5
I want to post or [tab]
guest
You may want to rate the tab now too:
select rating
Please do not post tabs as comments. Select "correction" instead!