Oops, an error
Loading. Please wait.

Secret To New York Tab

2,598 views 1 this week
no commentswrite comment
1 2 3 4 5
please rate
add to favorites
launch autoscroll
font size
0
reset
how to read this tab
guitar tuner
Autoscroll
slow
fast
+/-
esc
set tempo
stop
Help us to improve Ultimate-Guitar.com Take our survey!
×
Contributor
Difficulty
novice
-------------------------------------------------------------------------------
                             SONG NAME - Band Name
The secret to newyork- We the kings
-------------------------------------------------------------------------------
Tabbed by: Robin Daniel
Email:robinizer3@yahoo.com

Tuning: Standard

Intro: I know its too late
e|---------------------------------------------------------------------------|
B|---------------------------------------------------------------------------|
G|-99-99--999--6-6------------99-99-9999-------------------------------------|
D|-99-99--999--7-7--77-777----99-99-9999-4-4-4-4-444----7-7-99-999-----------|
A|-77-77--777--5-5--77-777----77-77-7777-4-4-4-4-444----7-7-99-999-----------|
E|------------------55-555---------------2-2-2-2-222----5-5-77-777-----------|

I wish
e|------------------------------------------------------------------------------|
B|------------------------------------------------------------------------------|
G|-99-99--999--6-6------------99-99-9999---------------(hold)-(hold)------------|
D|-99-99--999--7-7--77-777----99-99-9999-4-4-4-4-444----7------9----------------|
A|-77-77--777--5-5--77-777----77-77-7777-4-4-4-4-444----7------9----------------|
E|------------------55-555---------------2-2-2-2-222----5------7----------------|

Chorus: baby its over now
e|---------------------------------------------------------------------------|
B|---------------------------------------------------------------------------|
G|-9-------------------------------------------------------------------------|
D|-9-(16x)-9--------11-------9-------7------9--------------------------------|
A|-7-------9)(16x)--11-(8x)—-9-(8x)--7-(8x)-9-(8x)---------------------------|
E|---------7--------9--------7-------5------7--------------------------------|
I dont know how to fix this so its 799     755    799





Baby this time were through
e|---------------------------------------------------------------------------|
B|---------------------------------------------------------------------------|
G|-9-------------------------------------------------------------------------|
D|-9-(16x)-9--------11-------9-------7------9--------------------------------|
A|-7-------9)(16x)--11-(8x)—-9-(8x)--7-(8x)-9-(8x)---------------------------|
E|---------7--------9--------7-------5------7--------------------------------|
*********************** 799     755    799




Verse 2: broadway in my brain
e|---------------------------------------------------------------------------|
B|---------------------------------------------------------------------------|
G|-99-99--999--6-6------------99-99-9999-------------------------------------|
D|-99-99--999--7-7--77-777----99-99-9999-4-4-4-4-444----7-7-99-999-----------|
A|-77-77--777--5-5--77-777----77-77-7777-4-4-4-4-444----7-7-99-999-----------|
E|------------------55-555---------------2-2-2-2-222----5-5-77-777-----------|
 It all went by so fast
e|---------------------------------------------------------------------------|
B|---------------------------------------------------------------------------|
G|-99-99--999--6-6------------99-99-9999---------------(hold)-(hold)---------|
D|-99-99--999--7-7--77-777----99-99-9999-4-4-4-4-444----7------9-------------|
A|-77-77--777--5-5--77-777----77-77-7777-4-4-4-4-444----7------9-------------|
E|------------------55-555---------------2-2-2-2-222----5------7-------------|

Chorus: baby its over now
e|------------------------------------------------------------------------------|
B|------------------------------------------------------------------------------|
G|-9----------------------------------------------------------------------------|
D|-9-(16x)-9--------11-------9-------7------9-----------------------------------|
A|-7-------9)(16x)--11-(8x)—-9-(8x)--7-(8x)-9-(8x)------------------------------|
E|---------7--------9--------7-------5------7-----------------------------------|
*****************************799     755    799

Baby this time were through
e|---------------------------------------------------------------------------|
B|---------------------------------------------------------------------------|
G|-9-------------------------------------------------------------------------|
D|-9-(16x)-9--------11-------9-------7------9--------------------------------|
A|-7-------9)(16x)--11-(8x)—-9-(8x)--7-(8x)-9-(8x)---------------------------|
E|---------7--------9--------7-------5------7--------------------------------|
******************   799     755    799



Bridge: I’m stuck on this train
e|-----------------------------------------------------------------------------|
B|-----------------------------------------------------------------------------|
G|--------------------9--------------------------------------------------------|
D|-4--------7---------7-(11x)--9-----------------------------------------------|
A|-4-(17x)--7--(17x)--7--------9-(11x)-----------------------------------------|
E|-2--------5------------------7-----------------------------------------------|
|

With flashes of light Ill keep you here hidden in my eyes
e|-----------------------------------------------------------------------------|
B|-----------------------------------------------------------------------------|
G|-----------—-----------------------------------------------------------------|
D|-4--------7------------------------------------------------------------------|
A|-4-(10x)--7--(hold)----------------------------------------------------------|
E|-2--------5------------------------------------------------------------------|
|



Baby its over now maybe my ups are all downtown so far away im too lost to be found. (acoustic)
e|---------------------------------------------------------------------------|
B|---------------------------------------------------------------------------|
G|-9-------------------------------------------------------------------------|
D|-9-(9x)--9--------11-------9-------7---------------------------------------|
A|-7-------9)(9x)---11-(4x)--9-(4x)--7---------------------------------------|
E|---------7--------9--------7-------5---------------------------------------|


Last Chorus: baby this time were through
e|---------------------------------------------------------------------------|
B|---------------------------------------------------------------------------|
G|-9-------------------------------------------------------------------------|
D|-9-(16x)-9--------11-------9-------7------9--------------------------------|
A|-7-------9)(16x)--11-(8x)—-9-(8x)--7-(8x)-9-(8x)---------------------------|
E|---------7--------9--------7-------5------7--------------------------------|
***********************799     755    799

Thats the secret to newyork   nothing matters anymore that’s the secret to newyork
e|------------------------------------------------------------------------------|
B|------------------------------------------------------------------------------|
G|-9----------------------------------------------------------------------------|
D|-9-(16x)-9--------11-------9-------7------9-----------------------------------|
A|-7-------9)(16x)--11-(8x)—-9-(8x)--7-(8x)-9-(8x)------------------------------|
E|---------7--------9--------7-------5------7-----------------------------------|
********************799     755    799

************************************

| /   slide up
| \   slide down
| h   hammer-on
| p   pull-off
| ~   vibrato
| +   harmonic
| x   Mute note
| b   Bend
| pb  Pre-bend
| br  Bend release
| pbr Pre-bend release
| brb Bend release bend

************************************
Suggest correction What's this?
You can suggest a correction to this tab. Community and Mods will review your correction and vote to approve or reject it.
comments
We did not receive enough feedback on this tab! Please rate:
print report bad tab
1 2 3 4 5
I want to post or [tab]
guest
You may want to rate the tab now too:
select rating
Please do not post tabs as comments. Select "correction" instead!