Oops, an error
Loading. Please wait.

Secret Valentine Acoustic Tab

version 4
version 4

Intro

Whole song

Interactive

1,266 views 3 this week
no commentswrite comment
1 2 3 4 5
please rate
add to favorites
launch autoscroll
font size
0
reset
how to read this tab
guitar tuner
Tab Pro tools
  • play this tab
  • loop segment
  • change instrument
  • show fretboard
  • metronome
Autoscroll
slow
fast
+/-
esc
set tempo
stop
Contributor
Difficulty
Tuning
novice
D# G# C# F# A# D#
Couldnt Find a Decent Tab, Thought All hope was lost, Dw Your search stops here :D 
Took a few hours but im 99% sure this is how it goes,^^ Plz rate ^^ :)

-------------------------------------------------------------------------------
                             Secret Valentine - We The Kings
-------------------------------------------------------------------------------
Tabbed by: FinalFate2009
Email: d_j_b94@hotmail.com

Tuning:Eb Ab Db Gb Bb Eb

:-----------:
:-- Intro --:
:-----------:
Acoustic Lead:
e|---------------------------------------------------------------------------|
B|-----3-------3-------3-------3-------2-------2-------2-------2---3---------|
G|-------2---2---2---2---2---2---2---2---2---2---2---2---2---2---2-----------|
D|---------4-------4-------4-------4-------4-------4-------4-----------------|
A|---------------------------------------------------------------------------|
E|---------------------------------------------------------------------------|

e|---------------------------------------------------------------------------|
B|-----0-------0-------0-------0-------3-------3-------3-------3-------------|
G|-------2---2---2---2---2---2---2---2---2---2---2---2---2---2---2---2-------|
D|---------4-------4-------4-------4-------4-------4-------4-------4---------|
A|---------------------------------------------------------------------------|
E|---------------------------------------------------------------------------|

:------------------:
:-- Intro Part 2 --:
:------------------:
Acoustic Rhythm: 
e|-----0---0-0---0---0--0-0-0-0-0-0---0---0-0---0---0--0-0-0-0-0-0-----------|
B|-----3---3-3---3---3--3-3-3-3-3-3---3---3-3---3---3--3-3-3-3-3-3-----------|
G|-----2---2-2---2---2--2-2-2-2-2-2---2---2-2---2---2--2-2-2-2-2-2-----------|
D|-----0---0-0---0---0--0-0-0-0-0-0---2---2-2---2---2--2-2-2-2-2-2-----------|
A|-----0---0-0---0---0--0-0-0-0-0-0---0---0-0---0---0--0-0-0-0-0-0-----------|
E|---------------------------------------------------------------------------|

e|-----0---0-0---0---0--0-0-0-0-0-0---0---0-0---0---0--0-0-0-0-0-0-----------|
B|-----3---3-3---3---3--3-3-3-3-3-3---3---3-3---3---3--3-3-3-3-3-3-----------|
G|-----4---4-4---4---4--4-4-4-4-4-4---0---0-0---0---0--0-0-0-0-0-0-----------|
D|-----4---4-4---4---4--4-4-4-4-4-4---0---0-0---0---0--0-0-0-0-0-0-----------|
A|-----0---0-0---0---0--0-0-0-0-0-0---x---x-x---x---x--x-x-x-x-x-x-----------|
E|------------------------------------3---3-3---3---3--3-3-3-3-3-3-----------|

Acoustic Lead:
e|---------------------------------------------------------------------------|
B|-------10---8----7----7----------------------------------------------------|
G|-----7----7----7----7----9-11--(x4)Then Finish with---9-11-7---------------|
D|---------------------------------------------------------------------------|
A|---------------------------------------------------------------------------|
E|---------------------------------------------------------------------------|

:-----------:
:-- Verse --:
:-----------:
Acoustic Rhythm: Continuous up/down strumming (listen for timing on change)
e|-----0--------0--------0--------0------------------------------------------|
B|-----3--------3--------3--------3------------------------------------------|
G|-----2--------2--------0--------0------------------------------------------|
D|-----0--------2--------0--------0------------------------------------------|
A|-----0--------0--------x--------x------------------------------------------|
E|-----------------------3--------3------------------------------------------|

:----------------:
:-- Pre Chorus --:
:----------------:
Acoustic Rhythm:
e|-----0-------------------------------0-------------------------------------|
B|-----3-------------------------------3-------------------------------------|
G|-----2-------------------------------2-------------------------------------|
D|-----0-------------------------------2-------------------------------------|
A|-----0-------------------------------0-------------------------------------|
E|---------------------------------------------------------------------------|

Acoustic Lead:
e|---------------------------------------------------------------------------|
B|-----3-------3-------3-------3-------2-------2-------2-------2-------------|
G|-------2---2---2---2---2---2---2---2---2---2---2---2---2---2---2---2-------|
D|---------4-------4-------4-------4-------4-------4-------4-------4---------|
A|---------------------------------------------------------------------------|
E|---------------------------------------------------------------------------|

:------------:
:-- Chorus --:
:------------:
Acoustic Rhythm: Continuous up/down strumming (Listen for changes)
e|-----0------------0------------0-----------0-------------------------------|
B|-----3------------3------------3-----------3-------------------------------|
G|-----2------------2------------4-----------0-----(x4)----------------------|
D|-----0------------2------------4-----------0-------------------------------|
A|-----0------------0------------0-----------x-------------------------------|
E|-------------------------------------------3-------------------------------|

:------------:
:-- Bridge --:
:------------:
Acoustic Rhythm:
e|-----0-0-0-0----0-0-0-0----0-0-0-0----0-0-0-0-0-0-0-0----------------------|
B|-----3-3-3-3----3-3-3-3----3-3-3-3----3-3-3-3-3-3-3-3----------------------|
G|-----4-4-4-4----3-3-3-3----2-2-2-2----4-4-4-4-4-4-4-4----------------------|
D|-----4-4-4-4----4-4-4-4----2-2-2-2----5-5-5-5-5-5-5-5----------------------|
A|-----0-0-0-0----0-0-0-0----0-0-0-0----5-5-5-5-5-5-5-5----------------------|
E|---------------------------------------------------------------------------|

e|-----0----------0----------0----------0------------------------------------|
B|-----3----------3----------3----------3------------------------------------|
G|-----2----------2----------0----------2------------------------------------|
D|-----0----------2----------0----------2------------------------------------|
A|-----0----------0----------x----------0------------------------------------|
E|---------------------------3-----------------------------------------------|

And Thats All you'll need to know to put it together
:------------------:
:--     Intro    --:
:-- Intro Part 2 --:
:--     Verse    --:
:--    Chorus    --:
:--     Verse    --:
:--    Chorus    --:
:--    Bridge    --: (The quiet bit is just the picking at the start)
:--    Chorus    --:
:------------------:

comments
We did not receive enough feedback on this tab! Please rate:
print report bad tab
1 2 3 4 5
I want to post or [tab]
guest
You may want to rate the tab now too:
select rating
Please do not post tabs as comments. Select "correction" instead!