Oops, an error
Loading. Please wait.

Secret Valentine Tab

version 1
version 1

Whole song

Interactive

47,516 views 9 this week
2 commentsread comments
1 2 3 4 5
accurate
x 4
add to favorites
launch autoscroll
font size
0
reset
how to read this tab
guitar tuner
Autoscroll
slow
fast
+/-
esc
set tempo
stop
Help us to improve Ultimate-Guitar.com Take our survey!
×
Author
Tuning
D A D G B E
We the Kings - Skyway Avenue
Drop D Tuning
Tabbed by: Ryan Williams
Email: indegenious@gmail.com

Intro Lead:

E---------------|
B--9-7-6-2-4-6--|
G---------------|x5
D---------------|
A---------------|
D---------------|

Intro Chords:
(start after one time through on lead)  

E--------------------------------|
B--------------------------------|
G----6---------------------------|x2
D----6-(x8)-6------8------4------|
A----4------6-(x8)-8-(x8)-4-(x8)-|
D-----------6------8------4------|

Verse:
E--------------------------|
B--------------------------|
G----6---------------------|x2
D----6-(x8)-6------4-------|
A----4------6-(x8)-4-(x16)-|
D-----------6------4-------|

Prechorus:
(let ring)
E--------------|
B--------------|
G--------------|x1
D----4----6----|
A----4----6----|
D----4----6----|

Chorus:
E--------------------------------|
B--------------------------------|
G----6---------------------------|x2
D----6-(x8)-6------8------4------|
A----4------6-(x8)-8-(x8)-4-(x8)-|
D-----------6------8------4------|

Bridge:

E--------------------------------|
B--------------------------------|
G--------------------------6-----|x1
D-----8------7------6------6-----|
A-----8-(x4)-7-(x4)-6-(x4)-4-(x4)|
D-----8------7------6------------|

E--------------------------------|
B--------------------------------|
G----6---------------------------|x2
D----6-(x8)-6------8------4------|
A----4------6-(x8)-8-(x8)-4-(x8)-|
D-----------6------8------4------|

That's all.
Suggest correction
comments
print report bad tab
2 comments total.
0 reply
Ben Downes 396 wrote on February 16 2008, 03:59 am

completely wrong it's all in drop db mate i am makin a tab for this song write now,
should be up by tomorro depending on weather the u-g- commetie feels nice or now

0 reply
XxHeelyZxX 10 wrote on August 16 2008, 10:58 pm

sounds awesome!! but the bridge sounds a bit wrong. and ur missing an outro

guest
You may want to rate the tab now too:
select rating
Please do not post tabs as comments. Select "correction" instead!