Oops, an error
Loading. Please wait.

Secret Valentine Chords

version 2
version 2

Whole song

Interactive

18,490 views 1 this week
no commentswrite comment
1 2 3 4 5
accurate
x 3
add to favorites
launch autoscroll
font size
0
reset
transpose
0
reset
simplify chords
display chords
guitar tuner
Autoscroll
slow
fast
+/-
esc
set tempo
stop
Help us to improve Ultimate-Guitar.com Take our survey!
×
Author
I was bored. -_\\

Intro

e|--4-2-1--------------------------------------------------------------------|
B|-2-2-2-2-4-6-x2------------------------------------------------------------|
G|---------------------------------------------------------------------------|
D|---------------------------------------------------------------------------|
A|---------------------------------------------------------------------------|
E|---------------------------------------------------------------------------|

Verse
     Soft...  Wine..  Mine..  Intertwined..
e|---5--------5-------7-------3----------------------------------------------|
B|---5--------5-------7-------3----------------------------------------------|
G|---7--------6-------7-------4----------------------------------------------|
D|---7--------7-------9-------5----------------------------------------------|
A|---5--------7-------9-------5----------------------------------------------|
E|---5--------7-------7-------3----------------------------------------------|

   Nervous..  Shy...  Come... Tonight..
e|-5----------5-------7-------3----------------------------------------------|
B|-5----------5-------7-------3----------------------------------------------|
G|-7----------6-------7-------4----------------------------------------------|
D|-7----------7-------9-------5----------------------------------------------|
A|-5----------7-------9-------5----------------------------------------------|
E|-5----------7-------7-------3----------------------------------------------|

Pre-Chorus
  Secret Valentine
e|3-----------5--------------------------------------------------------------|
B|3-----------5--------------------------------------------------------------|
G|4-----------6--------------------------------------------------------------|
D|5-----------7--------------------------------------------------------------|
A|5-----------7--------------------------------------------------------------|
E|3-----------5--------------------------------------------------------------|


Chorus


              Dsus2
We'll write a song
                   A
that turns out the lights
                   B                            G
when both boy and girl start suddenly shaking inside
                 Dsus2 
don't waste your time
              A
speed up your breathing
                B
just close your eyes
                G
we'll hope it's not for nothing at all



    Lay..   Still..  Will..  Until..
e|---5--------5-------7-------3----------------------------------------------|
B|---5--------5-------7-------3----------------------------------------------|
G|---7--------6-------7-------4----------------------------------------------|
D|---7--------7-------9-------5----------------------------------------------|
A|---5--------7-------9-------5----------------------------------------------|
E|---5--------7-------7-------3----------------------------------------------|

Morning's..   Light..  Care..  Tonight..
e|---5--------5-------7-------3----------------------------------------------|
B|---5--------5-------7-------3----------------------------------------------|
G|---7--------6-------7-------4----------------------------------------------|
D|---7--------7-------9-------5----------------------------------------------|
A|---5--------7-------9-------5----------------------------------------------|
E|---5--------7-------7-------3----------------------------------------------|

Pre-Chorus

  Secret Valentine
e|3-----------5--------------------------------------------------------------|
B|3-----------5--------------------------------------------------------------|
G|4-----------6--------------------------------------------------------------|
D|5-----------7--------------------------------------------------------------|
A|5-----------7--------------------------------------------------------------|
E|3-----------5--------------------------------------------------------------|

Chorus


              Dsus2
We'll write a song
                   A
that turns out the lights
                   B                            G
when both boy and girl start suddenly shaking inside
                 Dsus2 
don't waste your time
              A
speed up your breathing
                B
just close your eyes
                G
we'll hope it's not for nothing at all

Bridge
     D
when guilt fills your head
               A
brush off rise up from the dead
            B
this is the moment that we
          G
will come alive
Dsus2                  A
brace yourself for love
      B            G
sweet love, secret love.

Chorus


              Dsus2*
We'll write a song
                   A*
that turns out the lights
                   B*                            G*
when both boy and girl start suddenly shaking inside
                 D 
don't waste your time
              A
speed up your breathing
                B
just close your eyes
                G
we'll hope it's not for nothing at all

* strum once.



A B G D Dsus2
5 7 3 5 0
5 7 3 5 3
6 7 4 7 2
7 9 5 7 0
7 9 5 5 x
5 7 3 5 x

Comments, questions..?
Email me @ justinmatthewjeremycarlosdomingo@yahoo.com
:)
Suggest correction
What's this?
You can suggest a correction to this tab. Community and Mods will review your correction and vote to approve or reject it.
comments
We did not receive enough feedback on this tab! Please rate:
print report bad tab
1 2 3 4 5
guest
You may want to rate the tab now too:
select rating
Please do not post tabs as comments. Select "correction" instead!