Oops, an error
Loading. Please wait.

Secret Valentine Tab

version 3
version 3

Whole song

Interactive

7,464 views 1 this week
3 commentsread comments
1 2 3 4 5
x 3
add to favorites
launch autoscroll
font size
0
reset
how to read this tab
guitar tuner
Autoscroll
slow
fast
+/-
esc
set tempo
stop
Help us to improve Ultimate-Guitar.com Take our survey!
×
-------------------------------------------------------------------------------
                             Secret Valentine - We The Kings
-------------------------------------------------------------------------------
Tabbed by:Adam
Email:himynameisadam44@aim.com

i'm pretty sure this is right its my first guitar tab so just play around with it and 
me if there is corrections.

Tuning:standard
 Guitar 1 intro
e|--------------------------------------------|
B|99-77-66-2-4-6------------------------------|
G|--------------------------------------------| 5x
D|--------------------------------------------|
A|--------------------------------------------|
E|--------------------------------------------|
 guitar 2 intro
e|-----------------------------|
B|-----------------------------|
G|6----------------------------|
D|6-(x8)-6------8------4-------|
A|4------6-(x8)-8-(x8)-4-(x8)--|
E|-------4------6------2-------|
 verse
e|--------------------------------|
B|--------------------------------|
G|6-------------------------------|
D|6-(x8)-6------4-----------------|x2
A|4------6-(x8)-4-(x16)-----------|
E|-------4------2-----------------|
 prechorus let them ring
e|---------------------|
B|---------------------|
G|---------------------|
D|4--6-----------------|
A|4--6-----------------|
E|2--4-----------------|
 chorus all chords x16
e|--------------------------|
B|--------------------------|
G|6-------------------------|
D|6-6-8-4-------------------|x2
A|4-6-8-4-------------------|
E|--4-6-2-------------------|
bridge
e|----------------------------------|
B|----------------------------------|
G|---------------------6------------|
D|8------7------6------6------------| x1
A|8-(x4)-7-(x4)-6-(x4)-4------------|
E|6------5------4-------------------|
all chords x8
e|---------------------|
B|---------------------|
G|6--------------------|
D|6-6-8-4--------------|x2
A|4-6-8-4--------------|
E|--4-6-2--------------|
Suggest correction
Give kudos to tab author, rate the tab!
1 2 3 4 5
comments
print report bad tab
3 comments total.
+1 reply
XxHeelyZxX 10 Aug 16, 2008 10:29 PM

the song is in drop d so the chorus shud be like
(look at version thatz i where i got it) it sounds better that way
E--------------------------------|
B--------------------------------|
G----6---------------------------|x2
D----6-(x8)-6------8------4------|
A----4------6-(x8)-8-(x8)-4-(x8)-|
D-----------6------8------4------|

-1 reply
SamJ35 30 Aug 17, 2008 11:27 AM

HeelyZ, the song doesn't need to be in drop d. There is no low open D chord, so its actually not needed. These chords and the ones on your tab are exactly the same chords. Yours doesn't sound any better than this one.

+1 reply
Sam Rulez D00d 928 Sep 18, 2008 07:02 PM

if u look at my version (4), it shows a small riff played during the verse that needs to be in drop d. anyways, thats how they play it.

guest
You may want to rate the tab now too:
select rating
Wanna post a correction for this tab? Suggest correction