Oops, an error
Loading. Please wait.

Secret Valentine Bass Tab

version 4
version 4

Whole song

Interactive

316 views 1 this week
1 commentread comment
1 2 3 4 5
please rate
add to favorites
launch autoscroll
font size
0
reset
guitar tuner
Autoscroll
slow
fast
+/-
esc
set tempo
stop
Help us to improve Ultimate-Guitar.com Take our survey!
×
Contributor
Difficulty
novice
Difficulty - Easy
Tuning - Standard 4 string bass

We The Kings - Secret Valentine Bass Tab! :D
(My first tab) I know this is 100% right :)
Enjoy!

Intro (0:04)
E|----0(x16)--6(x16)--8(x16)--4(x16)----|
A|--------------------------------------| 
D|--------------------------------------|
G|--------------------------------------|

Verse 1
E|-------6(x16)-4(x32)----|
A|-4(x16)-----------------| (X2)
D|------------------------|
G|------------------------|

Pre-chorus
E|-2~----4~----|
A|-------------|
D|-------------|
G|-------------|

Chorus
E|-0(x16)-6(x16)-8(x16)-4(x16)----|
A|--------------------------------| (X2)
D|--------------------------------| 
G|--------------------------------|

Verse 2
E|-------6(x16)-4(x32)----|
A|-4(x16)-----------------| (X2)
D|------------------------|
G|------------------------|

Pre-Chorus (x1)
Chorus (x2)

Bridge (2:13)
E|--------------4(x3)--3(x8)----||-2(x8)-4(x8)-6(x8)-9(x4)-10(x2)11(x2)----|
A|-3(x3)--0(x3)-----------------||-----------------------------------------|
D|------------------------------||-----------------------------------------|
G|------------------------------||-----------------------------------------|

Rest

Chorus (x2)

Outro
E|-0(x16)--6(x16)--8(x16)--4-44-44-4(x8)~----|
A|-------------------------------------------|
D|-------------------------------------------|
G|-------------------------------------------|

~ = let the note ring

Thanks guys. please rate,comment and correct me on hotmail if you wish XD alig1997@live.co.uk
comments
We did not receive enough feedback on this tab! Please rate:
print report bad tab
1 2 3 4 5
1 comment total.
0 reply
zjcl1 130 wrote on January 26 2012, 01:46 am

you have your tab writing upside down. its supposed to be like this
intro
G|--------------------------------|
D|--------------------------------|
A|--------------------------------|
E|--0(X16)-6(X16)-8(X16)-4(X16)---|

I want to post or [tab]
guest
You may want to rate the tab now too:
select rating
Please do not post tabs as comments. Select "correction" instead!