Oops, an error
Loading. Please wait.

Secret Valentine Tab

version 4
version 4

Whole song

Interactive

82,018 views 6 this week
10 commentsread comments
1 2 3 4 5
x 28
add to favorites
launch autoscroll
font size
0
reset
how to read this tab
guitar tuner
Autoscroll
slow
fast
+/-
esc
set tempo
stop
Help us to improve Ultimate-Guitar.com Take our survey!
×
Author
Difficulty
Tuning
novice
D A D G B E
----------------------------------------------------------------------------
                              SECRET VALENTINE
                               WE THE KINGS
----------------------------------------------------------------------------
This is my second tab and i'm pretty sure its correct.

Drop D (D A D G B e)

Intro: (Distant)
|---------------|
|---9--7--6---6-|
|-6--6--6--6-8--|
|---------------|
|---------------|
|---------------|

Gets Louder... (See bottom of tab for the rhythm guitar)
|---------------|             |------------|
|---9--7--6---6-|             |---9--7--6~-|
|-6--6--6--6-8--| (REPEAT x3) |-6--6--6----|
|---------------|             |------------|
|---------------|             |------------|
|---------------|             |------------|

Verse: “Soft kiss and wine...”
|--------------------------------------------------------------------|
|--------------------------------------------------------------------|
|-6666666666666666------------------------------------------6--5-----| (REPEAT x2) 
|-6666666666666666-6666666666666666-4444444444444444444444444444446~-|
|-4444444444444444-6666666666666666-44444444444444444444444444444444-|
|------------------6666666666666666-44444444444444444444444444444444-|
PM.. .. .. .. ..   .. .. .. .. ..   .. .. .. .. ..  .. .. .. .. ..

“Secret Valentine...”
|---------|
|---------|
|---------|
|-4~---6~-|
|-4~---6~-|
|-4~---6~-|

Chorus: “We’ll write a song...”
|-----------------------------------------------------------------|
|-----------------------------------------------------------------|
|-6-------8-------3---------------6-------8-------3---------------|
|-6-(x16)-6-------3-(x16)-4-------6-(x16)-6-------3-(x16)-4-------|
|-4-------6-(x16)-1-------4-(x16)-4 ------6-(x16)-1-------4-(x16)-|
|---------6---------------4---------------6---------------4-------|

Verse (Guitar 2 plays lead on high e string...see bottom of tab) 
Chorus
Bridge: “When guilt fills your head...” (Not sure about this part)
|--------------------------------------------|
|--------------------------------------------|
|-3-333-3~-2-222-2~--------------------------|
|-3-333-3~-2-222-2~-6-666-6~-5-555-5~-4----6-|
|-1-111-1~-0-000-0~-6-666-6~-5-555-5~-4----6-|
|-------------------6-666-6~-5-555-5~-4----6-|

“Sweet Love...”
|-----------------|
|-----------------|
|-----------------|
|-1-------4-------|
|-1-(x16)-4-(x16--|
|-1-------4-------|

Chorus x2

Intro Rhythm: (These are the chords in the background of the intro)
|x466xx, 666xxx, x133xx, 444xxx|

Verse 2 Lead: (This is the lead played on the high e string)
e|-999999999999999988888888888888886666666666666666888899991111111113131313131313131313-|
Suggest correction
comments
print report bad tab
10 comments total. Showing first comments.
+3 reply
Sam Rulez D00d 928 Sep 18, 2008 07:09 PM

i dont know how 2 edit this thing so i'll post the piano thingy here:
|-4---4---4---4---------------------1---1---1---1------|
|--6-6-6-6-6-6-6-6-------------------2-2-2-2-2-2-2-2---|
|---6---6---6---6--8---8---8---8-8----3---3---3---3--6-|
|-------------------6-6-6-6-6-6-6-6------------------4-|
|--------------------6---6---6-----------------------4-|
|------------------------------------------------------|

+2 reply
Sam Rulez D00d 928 Nov 23, 2008 11:30 AM

someone rated this 1 star just cuz they dont like we the kings. thats pathetic.

+3 reply
aznxpr1de 10 Feb 15, 2009 01:59 AM

Looking at your tabs, you don't exactly have to tune to drop D, you could just keep it standard tuned and play as power chords instead of making a bar across the whole fret board... overall it all seems correct. good job!

guest
You may want to rate the tab now too:
select rating
Wanna post a correction for this tab? Suggest correction