Oops, an error
Loading. Please wait.

Secret Valentine Tab

version 5
version 5

Whole song

Interactive

5,355 views 6 this week
no commentswrite comment
1 2 3 4 5
accurate
x 4
add to favorites
launch autoscroll
font size
0
reset
how to read this tab
guitar tuner
Tab Pro tools
  • play this tab
  • loop segment
  • change instrument
  • show fretboard
  • metronome
×
Best way to learn
"Secret Valentine"
Autoscroll
slow
fast
+/-
esc
set tempo
stop
Contributor
Song: Secret Valentine
Artist: We The Kings 
Tunning: Half Step Down or Standard
Tabbed by: Jorge Ueda (chicho_ueda@hotmail.com -- so Any suggestions)

The only great difference between all the tabs out there and my tab is that
I tabbed the piano intro, so you can play it nice on an acoustic performance.

I wrote my own intro and I tabbed Travis intro, so you can choose the one
that you find easy going to play...


This one was made up by me: 
     e|---------------0----------------------------------------------- 
     B|-3---3---3---3---2---2---2---2-3-0---0---0---0-2-3---3---3---3-
     G|--2-2-2-2-2-2-2-2-2-2-2-2-2-2-2-2-2-2-2-2-2-2-2-2-2-2-2-2-2-2--   x2 
     D|---4---4---4-------4---4---4-------4---4---4-------4---4---4--- 
     A|--------------------------------------------------------------- 
     E|--------------------------------------------------------------- 

And this one is the one Travis uses when singing this song on acoustic guitar: 
     e|--------------------------------------------------------------- 
     B|-3---3---3---3---2---2---2---2---0---0---0---0---2---2---2---2- 
     G|--2-2-2-2-2-2-2-2-2-2-2-2-2-2-2-2-2-2-2-2-2-2-2-2-2-2-2-2-2-2--   x2 
     D|---4---4---4---4---4---4---4---4---4---4---4---4---4---4---4--- 
     A|--------------------------------------------------------------- 
     E|--------------------------------------------------------------- 


**************************************************************

After that, here's the complete tab, I made a little changes in this tab so it
will sound better in an acoustic guitar...

Intro: (Rythm after piano intro)
     e|--------------------------------|
     B|--------------------------------|
     G|----6---------------------------|x2
     D|----6-(x8)-6------8------4------|
     A|----4------6-(x8)-8-(x8)-4-(x8)-|
     D|-----------x------x------x------|



Verse 1: 
       “Soft kiss and wine..........We will come alive tonight.”
     e|---------------------------------------------------------------------|
     B|---------------------------------------------------------------------|
     G|-6666666666666666------------------------------------------666--555--|
     D|-6666666666666666-6666666666666666-444444444444444444444444444444444-|
     A|-4444444444444444-6666666666666666-444444444444444444444444444444444-|
     E|------------------xxxxxxxxxxxxxxxx-xxxxxxxxxxxxxxxxxxxxxxxxxxxxxxxxx-|
     PM  .. .. .. .. ..   .. .. .. .. ..   .. .. .. .. .. .. .. ..   ..   .


      “Secret Valentine.”
     e|----------------|
     B|----------------|
     G|----------------|
     D|-4~-----xxxx-6~-|
     A|-4~-----xxxx-6~-|
     E|-x------xxxx-x--|
        D      DUDU D


Chorus:

     (We'll write a song...)    (...We'll hope it's not for nothing at all)
     e|--------------------------------------------------------------------|
     B|--------------------------------------------------------------------|
     G|-6--------8--------3-----------------6--------8-------3-------------|
     D|-6-(x8)---6--------3-(x8)--4---------6-(x8)---6-------3-(x8)-4------|
     A|-4--------6-(x8)---1-------4-(x8)----4--------6-(x8)--1------4-(x8)-|
     E|---------------------------x---------------------------------x------|


Verse 2: 
     "Lay down be still..............I'll take care of you tonight" (Played by Rhythm)
     e|---------------------------------------------------------------------|
     B|---------------------------------------------------------------------|
     G|-6666666666666666------------------------------------------666--555--|
     D|-6666666666666666-6666666666666666-444444444444444444444444444444444-|
     A|-4444444444444444-6666666666666666-444444444444444444444444444444444-|
     E|------------------xxxxxxxxxxxxxxxx-xxxxxxxxxxxxxxxxxxxxxxxxxxxxxxxxx-|
     PM  .. .. .. .. ..   .. .. .. .. ..   .. .. .. .. .. .. .. ..   ..   .

     Verse 2 LEAD GUITAR Since the second part of the verse: (Morning's first light)
     e|-9-9-9-9-9-9-9-9-9-9-9-9-9-9-9-8-8-8-8-8-8-8-8-8-8-8-8-8-8-8-8-|
     B|---------------------------------------------------------------|
     G|---------------------------------------------------------------|
     D|---------------------------------------------------------------|
     A|---------------------------------------------------------------|
     E|---------------------------------------------------------------|

     e|6-6-6-6-6-6-6-6-6-6-6-6-6-6-6-8-8-8-8-9-9-9-9-11-11-11-11-13-13-13-13 13
     B|------------------------------------------------------------------------|
     G|------------------------------------------------------------------------|
     D|------------------------------------------------------------------------|
     A|------------------------------------------------------------------------|
     E|------------------------------------------------------------------------|


     “Secret Valentine.”
     e|----------------|
     B|----------------|
     G|----------------|
     D|-4~-----xxxx-6~-|
     A|-4~-----xxxx-6~-|
     E|-x------xxxx-x--|
        D      DUDU D


Chorus:
      (We'll write a song...)    (...We'll hope it's not for nothing at all)
     e|--------------------------------------------------------------------|
     B|--------------------------------------------------------------------|
     G|-6--------8--------3-----------------6--------8-------3-------------|
     D|-6-(x8)---6--------3-(x8)--4---------6-(x8)---6-------3-(x8)-4------|
     A|-4--------6-(x8)---1-------4-(x8)----4--------6-(x8)--1------4-(x8)-|
     E|---------------------------x---------------------------------x------|

Bridge: 
       “When guilt fills your head...Brace yourselves for love.”
     e|-------------------------------------------------------------|
     B|-------------------------------------------------------------|
     G|-3-3xx3~---2-2xx2~-------------------------------------------|
     D|-3-3xx3~---2-2xx2~---6-6xx6~---5-5xx5~------4---------6------|
     A|-1-1xx1~---0-0xx0~---6-6xx6~---5-5xx5~------4-(x8)----6-(x8)-|
     E|---------------------x-xxx6~---x-xxx5~------x---------x------|
        D UDUD    D UDUD    D UDUD    D UDUD   PM  .................

       “Sweet Love...Secret Love”
     e|-------------------|
     B|-------------------|
     G|-------------------|
     D|-1--------4--------|
     A|-1-(x8)---4-(x8)---|
     E|-x--------x--------|
     PM...................


Chorus:
     e|-----------------------------------|
     B|-----------------------------------|
     G|-6--------8--------3---------------|  x2
     D|-6-(x8)---6--------3-(x8)--4-------| 
     A|-4--------6-(x8)---1-------4-(x8)--|
     E|---------------------------x-------|


Chorus Bridge: 

     "We'll write a song....When both boys and girls suddenly shaking

     Played once by Lead on guitar.
     e|--------------------------------------------------------------- 
     B|-3---3---3---3---2---2---2---2---0---0---0---0---2---2---2---2- 
     G|--2-2-2-2-2-2-2-2-2-2-2-2-2-2-2-2-2-2-2-2-2-2-2-2-2-2-2-2-2-2--   x2 
     D|---4---4---4---4---4---4---4---4---4---4---4---4---4---4---4--- 
     A|--------------------------------------------------------------- 
     E|--------------------------------------------------------------- 

     After the piano strike with this part of the chorus: 

      "Don't waste your time....We'll hope its not for nothing at all"
     e|------------------------------------|
     B|------------------------------------|
     G|-6--------8-------3-----------------|
     D|-6-(x8)---6--------3-(x8)--4--------|
     A|-4--------6-(x8)---1-------4-(x8)---|
     E|---------------------------x--------|

Last chorus:
      "We'll write a song....We'll hope its not for nothing all"
     e|-----------------------------------|
     B|-----------------------------------|
     G|-6--------8--------3---------------|  x2
     D|-6-(x8)---6--------3-(x8)--4-------| 
     A|-4--------6-(x8)---1-------4-(x8)--|
     E|---------------------------x-------|

Ending:

      "Nothing at all."
     e|------|
     B|------|
     G|-6~---|
     D|-6~---|
     A|-4~---|
     E|------|
comments
print report bad tab
I want to post or [tab]
guest
You may want to rate the tab now too:
select rating
Please do not post tabs as comments. Select "correction" instead!