Oops, an error
Loading. Please wait.

Skyway Avenue Bass Tab

version 1
version 1

Acoustic

Whole song

Interactive

2,133 views 1 this week
no commentswrite comment
1 2 3 4 5
please rate
add to favorites
launch autoscroll
font size
0
reset
guitar tuner
Autoscroll
slow
fast
+/-
esc
set tempo
stop
Help us to improve Ultimate-Guitar.com Take our survey!
×
Author
Skyway Avenue [Acoustic] - We The Kings 

Intro [bass comes in around 00:6] 

G--------------|
D--------------|
A-1~~---2~~4~~-|
D----1~~-------| X2

Verse [REST]

Pre Chorus
"Blinded by the lights.."
G--------------|
D--------------|
A-1~~---2~~4~~-|
D----1~~-------| X2


Chorus
"Cause if you jump.."
G--------------------------------|
D--------------------------------|
A--------4444444-6666666-2222222-|
D-4444444------------------------| X2


"What we've done..."
G----------------|
D----------------|
A----4~~-6~--2~~-|
D-4~-------------| x1

"Cause I will die for you..."
G--------------------------------|
D--------------------------------|
A--------4444444-6666666-2222222-|
D-4444444------------------------|

Verse [REST]

Pre Chorus x2

Chorus
"Cause if you jump.."
G--------------------------------|
D--------------------------------|
A--------4444444-6666666-2222222-|
D-4444444------------------------| X2

"What we've done..."
G----------------|
D----------------|
A----4~~-6~--2~~-|
D-4~-------------| x1

"Cause I will die for you..."
G--------------------------------|
D--------------------------------|
A--------4444444-6666666-2222222-|
D-4444444------------------------|

Bridge
"Where are your guts to fly..."
G------------------------------|
D------------------------------|
A--------2222222-------4444444-|
D-1111111-------4444444--------| X4


G-----------------------------|
D-----------------------------|
A-222222222222-------4444444--|
D-------------4444444---------| X2 [Second time A4 is shorter]


Chorus
"Cause if you jump.."
G--------------------------------|
D--------------------------------|
A--------4444444-6666666-2222222-|
D-4444444------------------------| X2

"What we've done..."
G----------------|
D----------------|
A----4~~-6~--2~~-|
D-4~-------------| x1

"Cause I will die for you..."
G--------------------------------|
D--------------------------------|
A--------4444444-6666666-2222222-|
D-4444444------------------------|

"So whats left to prove..."
G----------------|
D----------------|
A----4~~-6~--2~~-|
D-4~-------------| x1


Suggest correction
Give kudos to tab author, rate the tab!
1 2 3 4 5
comments
print report bad tab
guest
You may want to rate the tab now too:
select rating
Wanna post a correction for this tab? Suggest correction