Oops, an error
Loading. Please wait.

Skyway Avenue Bass Tab

version 1
version 1

Whole song

Interactive

15,609 views 24 this week
3 commentsread comments
1 2 3 4 5
excellent!
x 5
add to favorites
launch autoscroll
font size
0
reset
guitar tuner
Tab Pro tools
  • play this tab
  • loop segment
  • change instrument
  • show fretboard
  • metronome
Autoscroll
slow
fast
+/-
esc
set tempo
stop
artist:  We The Kings
song:    Skyway Avenue
album:   We The Kings
bassist: Drew Thomsen


intro(come in at 0:10)x2
G|------------------------------------|
D|------------------------------------|
A|-2222222222222222----------44444444-|
E|------------------22222222----------|

"she said let change..."
(no bass)

verse:"sweat dreams..."(0:33)x2
 |------------------------------------|
 |------------------------------------|
 |-2222222222222222----------44444444-|
 |------------------22222222----------|

pre-chorus:"blinded by the light..."(0:45)
 |-------------------------------------------|
 |-------------------------------------------|
 |-6~~-4~~-6~~-8~~-6~~-4~~-22222222-44444444-|
 |-------------------------------------------|

chorus:"'cuz if you jump..."(0:55)
 |------------------------------------|x2
 |------------------------------------|
 |-22222222-44444444-6666666666666666-|
 |------------------------------------|

 |--------------------------------------------|
 |--------------------------------------------|
 |-44--22------22------------------22222222h4-|
 |---------33-----4444444444444444------------|

verse:"she said dont change..."(1:20)x4
 |-----------------------------|
 |-----------------------------|
 |-2-2--2-2-2-22-2-2--4-4-6-66-|
 |-----------------------------|

pre-chorus:"blinded by the light..."(1:43)
 |-------------------------------------------|
 |-------------------------------------------|
 |-6~~-4~~-6~~-8~~-6~~-4~~-22222222-44444444-|
 |-------------------------------------------|

chorus:"'cuz if you jump..."(1:55)
 |------------------------------------|x2
 |------------------------------------|
 |-22222222-44444444-6666666666666666-|
 |------------------------------------|

 |--------------------------------------------|
 |--------------------------------------------|
 |-44--22------22------------------22222222h4-|
 |---------33-----4444444444444444------------|

bridge:"where are your wings..."(2:18)x2
 |-----------------------------------------------------------------|
 |-----------------------------------------------------------------|
 |---------------------------------2-2-2-2-2-2-2-2-3-3-3-3-3-3-3-3-|
 |-2-2-2-2-2-2-2-2-4-4-4-4-4-4-4-4---------------------------------|

 |-----------------------------| |-------------------|
 |-----------------------------| |-------------------|
 |-2-2--2-2-2-22-2-2--4-4-6-66-| |2-2--2-2-2-22--4-4m|
 |-----------------------------| |-------------------|

chorus:"'cuz if you jump..."(2:53)
 |------------------------------------|x2
 |------------------------------------|
 |-22222222-44444444-6666666666666666-|
 |------------------------------------|

 |---------------------------------------------------------|
 |---------------------------------------------------------|
 |-44--22------22------------------22222222h4~/6~/8~\4~\0~-|
 |---------33-----4444444444444444-------------------------|

~  hold
h  hammer on
m  silence
/  slide up
\  slide down

welp their it is i love this song and i hope you do to its not to hard and very fun to 
hope u enjoy:)
this is my first tab so comment, plz dont be to mean but b true and give it to me how it is:)
comments
print report bad tab
3 comments total.
0 reply
glmclaughlin13 wrote on September 9 2009, 09:57 pm

this is great

+1 reply
Benjy UK wrote on March 12 2010, 02:17 pm

Chorus is wrong! But otherwise mostly good

Should be-

|------------------------------------|x2
|------------------------------------|
|----------44444444-66666666-22222222|
|-222222222--------------------------|

|--------------------------------------------|
|--------------------------------------------|
|-------4-444--6-666-2-222-------------------|
|-2-222--------------------------------------|

|--------------------------------------------|
|--------------------------------------------|
|-------------------22222222h4---------------|
|-4444444444444444---------------------------|

0 reply
Imploderz wrote on December 9 2013, 04:01 pm

this is awesome best song ever!

I want to post or [tab]
guest
You may want to rate the tab now too:
select rating
Please do not post tabs as comments. Select "correction" instead!