Oops, an error
Loading. Please wait.

Skyway Avenue Live Acoustic Tab

version 1
version 1

Whole song

11,057 views 1 this week
5 commentsread comments
1 2 3 4 5
1 last vote to show rating
add to favorites
launch autoscroll
font size
0
reset
how to read this tab
guitar tuner
Autoscroll
slow
fast
+/-
esc
set tempo
stop
Help us to improve Ultimate-Guitar.com Take our survey!
×
Author
Difficulty
Tuning
intermediate
C G C F A D
----------------------------------------
ARTIST: We The Kings
SONG: Skyway Avenue (Live Acoustic)

Tuning: CGCFAd
Notes: I have tabbed parts of it, I will soon finish it in a couple of days. Nobody has 
the acoustic version, so I am tabbing it. Everything I have tabbed so far is 100% correct.

Tab by: Marc Ojales
Email: xitsmako@yahoo.com
----------------------------------------

=== GUITAR 1 ===

d|-------10--10-----10---10-10-10-10-10-10----------------------|
A|-------8---8------8----8--8--7--7--7--7-----------------------|
F|-------0---0------0----0--0--0--0--0--0-----------------------|
C|---0-0---0----0-0----0----------------------------------------|
G|---8-8---8----8-8----8----------------------------------------|
C|--------------------------------------------------------------|

d|-------10--10-----10---10-10-10-10-10-10----------------------|
A|-------8---8------8----8--8--7--7--7--7-----------------------|
F|-------0---0------0----0--0--0--0--0--0-----------------------|
C|---0-0---0----0-0----0----------------------------------------|
G|---8-8---8----8-8----8----------------------------------------|
C|--------------------------------------------------------------|

d|---0---0----0--0--0--0----0---0----0--0--0--0-----------------|
A|---0---0----0--0--0--0----0---0----0--0--0--0-----------------|
F|--------------------------------------------------------------|
C|---10--10---10-10-10-10---10--10---10-10-10-10----------------|
G|---10--10---10-10-10-10---10--10---10-10-10-10----------------|
C|---10--10---10-10-10-10---10--10---10-10-10-10----------------|

d|--------------------------------------------------------------|
A|--------------------------------------------------------------|
F|--------------------------------------------------------------|
C|---5--5---5-5-5-0---0-0-0-0-0-0-0-----------------------------|
G|---5--5---5-5-5-0---0-0-0-0-0-0-0-----------------------------|
C|---5--5---5-5-5-0---0-0-0-0-0-0-0-----------------------------|

d|---0--0---0-0-0-0---0--0---0-0-0-0----------------------------|
A|---0--0---0-0-0-0---0--0---0-0-0-0----------------------------|
F|---5--5---5-5-5-5---5--5---5-5-5-5----------------------------|
C|---5--5---5-5-5-5---5--5---5-5-5-5----------------------------|
G|---3--3---3-3-3-3---3--3---3-3-3-3----------------------------|
C|--------------------------------------------------------------|

d|--------------------------------------------------------------|
A|--------------------------------------------------------------|
F|--------------------------------------------------------------|
C|---5--5---5-5-5-0---0-0-0-0-0-0-0-----------------------------|
G|---5--5---5-5-5-0---0-0-0-0-0-0-0-----------------------------|
C|---5--5---5-5-5-0---0-0-0-0-0-0-0-----------------------------|

=== GUITAR 2 ===

d|--------------------------------------------------------------|
A|--------------------------------------------------------------|
F|--------------------------------------------------------------|
C|--------------------------------------------------------------|
G|--------------------------------------------------------------|
C|--------------------------------------------------------------|

d|--------------------------------------------------------------|
A|----------------15---------------------------15---------------|
F|---12h14p12-12----12-11-12-12h14p12-12---------12-11----------|
C|--------------12-----------------------12-12------------------|
G|--------------------------------------------------------------|
C|--------------------------------------------------------------|

d|-  NOTE: This is the correct chords in the right order, but  -
A|-        figure out the pattern, it's really easy.           -
F|--------------------------------------------------------------|
C|---7-7-7---7-----7-7-7-7---7-7-7----7--7----7---7-7-7-7--7-7--|
G|---3-3-3---3-----3-3-3-3---3-3-3----5--5----5---5-5-5-5--5-5--|
C|------------------------------------5--5----5---5-5-5-5-------|
     . .            . .               .  .

( . = palm mute )
Suggest correction
Give kudos to tab author, rate the tab!
1 2 3 4 5
comments
print report bad tab
5 comments total. Showing first comments.
-2 reply
Shaggyoutlaw89 82 Sep 06, 2008 09:14 PM

dude thats just like wrong
besides they dont tune down a step
they mite play in drop d but definately not c

+2 reply
lolmako 93 Sep 07, 2008 07:49 PM

I'm tabbing off live videos on youtube. I'm pretty sure its drop c, because d is a bit to high. either that or the video audio quality is just bad.

+2 reply
lolmako 93 Sep 07, 2008 07:50 PM

----------------------------------------
ARTIST: We The Kings
SONG: Skyway Avenue (Live Acoustic)

Tuning: CGCFAd
Notes: I decided to tab the acoustic verison since nobody has. It's around 98% correct. Not all strumming patterns are exact (they may be

close), but you should be able to figure it out yourself.

Tab by: Marc Ojales
Email: xitsmako@yahoo.com
----------------------------------------

=== GUITAR 1 ===

d|-------10--10-----10---10-10-10-10-10-10----------------------
A|-------8---8------8----8--8--7--7--7--7-----------------------
F|-------0---0------0----0--0--0--0--0--0-----------------------
C|---0-0---0----0-0----0----------------------------------------
G|---8-8---8----8-8----8----------------------------------------
C|--------------------------------------------------------------

d|-------10--10-----10---10-10-10-10-10-10----------------------
A|-------8---8------8----8--8--7--7--7--7-----------------------
F|-------0---0------0----0--0--0--0--0--0-----------------------
C|---0-0---0----0-0----0----------------------------------------
G|---8-8---8----8-8----8----------------------------------------
C|--------------------------------------------------------------

d|---0---0----0--0--0--0----0---0----0--0--0--0-----------------
A|---0---0----0--0--0--0----0---0----0--0--0--0-----------------
F|--------------------------------------------------------------
C|---10--10---10-10-10-10---10--10---10-10-10-10----------------
G|---10--10---10-10-10-10---10--10---10-10-10-10----------------
C|---10--10---10-10-10-10---10--10---10-10-10-10----------------

d|--------------------------------------------------------------
A|--------------------------------------------------------------
F|--------------------------------------------------------------
C|---5--5---5-5-5-0---0-0-0-0-0-0-0-----------------------------
G|---5--5---5-5-5-0---0-0-0-0-0-0-0-----------------------------
C|---5--5---5-5-5-0---0-0-0-0-0-0-0-----------------------------

d|---0--0---0-0-0-0---0--0---0-0-0-0----------------------------
A|---0--0---0-0-0-0---0--0---0-0-0-0----------------------------
F|---5--5---5-5-5-5---5--5---5-5-5-5----------------------------
C|---5--5---5-5-5-5---5--5---5-5-5-5----------------------------
G|---3--3---3-3-3-3---3--3---3-3-3-3----------------------------
C|--------------------------------------------------------------

d|--------------------------------------------------------------
A|--------------------------------------------------------------
F|--------------------------------------------------------------
C|---5--5---5-5-5-0---0-0-0-0-0-0-0-----------------------------
G|---5--5---5-5-5-0---0-0-0-0-0-0-0-----------------------------
C|---5--5---5-5-5-0---0-0-0-0-0-0-0-----------------------------

d|--------------------------------------------------------------
A|--------------------------------------------------------------
F|---0-0-0-0-0-0-0-0--4-4-4-4--0-0-0-0--------------------------
C|---2-2-2-2-2-2-2-2--5-5-5-5--4-4-4-4--------------------------
G|---3-3-3-3-3-3-3-3--0-0-0-0--5-5-5-5--------------------------
C|--------------------------------------------------------------

d|--------------------------------------------------------------
A|--------------------------------------------------------------
F|---0-0-0-0-0-0-0-0--4-4-4-4--0-0-0-0--------------------------
C|---2-2-2-2-2-2-2-2--5-5-5-5--4-4-4-4--------------------------
G|---3-3-3-3-3-3-3-3--0-0-0-0--5-5-5-5--------------------------
C|--------------------------------------------------------------

d|- NOTE: This is the correct chords in the right order, but -
A|- figure out the pattern, it's really easy. -
F|---0-0-0-0-0-0-0-0--4-4-4-4--0-0-0-0--------------------------
C|---2-2-2-2-2-2-2-2--5-5-5-5--4-4-4-4--------------------------
G|---3-3-3-3-3-3-3-3--0-0-0-0--5-5-5-5--------------------------
C|--------------------------------------------------------------

d|- NOTE: This is the correct chords in the right order, but -
A|- figure out the pattern, it's really easy. -
F|---0-0-0-0-0-0-0-0--4-4-4-4--0-0-0-0--------------------------
C|---2-2-2-2-2-2-2-2--5-5-5-5--4-4-4-4--------------------------
G|---3-3-3-3-3-3-3-3--0-0-0-0--5-5-5-5--------------------------
C|--------------------------------------------------------------

d|--------------------------------------------------------------
A|--------------------------------------------------------------
F|--------------------------------------------------------------
C|--------------------------------------------------------------
G|--------------------------------------------------------------
C|--------------------------------------------------------------

d|--------------------------------------------------------------
A|--------------------------------------------------------------
F|---------------------------2-2-2-2-2-2------------------------
C|---5-5-5-5-5-5-0-0-0-0-0-0-2-2-2-2-2-2-3-3-3-3-3-3------------
G|---5-5-5-5-5-5-0-0-0-0-0-0-0-0-0-0-0-0-3-3

guest
You may want to rate the tab now too:
select rating
Wanna post a correction for this tab? Suggest correction