Oops, an error
Loading. Please wait.

Skyway Avenue Live Acoustic Tab

version 2
version 2

Whole song

3,682 views 1 this week
2 commentsread comments
1 2 3 4 5
2 more votes to show rating
add to favorites
launch autoscroll
font size
0
reset
how to read this tab
guitar tuner
Autoscroll
slow
fast
+/-
esc
set tempo
stop
Help us to improve Ultimate-Guitar.com Take our survey!
×
Author
Tuning
C G C F A D
This is played in drop C. The tab is based off the 100 videos posted on youtube of
the two playing at stores, after shows, etc. Damn close to 100% correct. Timings
yours to figure out for the most part.

DOES NOT INCLUDE LEAD LICK
*- Palm Mute

INTRO
d----------10----10-----10---10-----10101010-|
A----------8-----8------8----8------7-7-7-7--|
F----------0-----0------0----0------0-0-0-0--|
C--------------------------------------------|
G------9-9----9-----9-9----9----9-9----------|
C--------------------------------------------|
       * *    *     * *    *    * *

Bridge
d------0---------x---x----|
A------0---------x---x----|
F------x---------7---7----|           x2
C------10--------7---7----|
G------10--------5---0----|
C------10--------5---0----|

Verse
d----------------------------------------------------|
A----------------------------------------------3---3-|
F----------0---0-----0---0---0-0-0-0-------4-4-4-4-4-|
C------2-2-2-2-2-2-2-2-2-2-2-2-2-2-2-------5-5-5-5-5-|
G------3-3-3-3-3-3-3-3-3-3-3-3-3-3-3-----------------|
C----------------------------------------------------|
       * *   *   * *   *   *               * *   *
Verse Continued
d------------------------------------|
A------------------------------------|
F----------0---0-----0---0---0-0-0-0-|
C------4-4-4-4-4-4-4-4-4-4-4-4-4-4-4-|
G------5-5-5-5-5-5-5-5-5-5-5-5-5-5-5-|
C------------------------------------|
       * *   *   * *   *   *


Bridge
d------0---------x---0----|
A------0---------x---0----|
F------x---------7---7----|           x2
C------10--------7---7----|
G------10--------5---0----|
C------10--------5---0----|

Chorus
d------x---0---x---0---|--0--0--0-|
A------x---0---x---0---|--1--0--0-|
F------7---7---x---5-x3|--2--5--7-|
C------7---7---2---5---|--2--5--7-|
G------5---0---2---3---|--0--3--5-|
C------5---0---2---x---|--x--x--x-|

Verse
d----------------------------------------------------|
A----------------------------------------------3---3-|
F----------0---0-----0---0---0-0-0-0-------4-4-4-4-4-|
C------2-2-2-2-2-2-2-2-2-2-2-2-2-2-2-------5-5-5-5-5-|
G------3-3-3-3-3-3-3-3-3-3-3-3-3-3-3-----------------|
C----------------------------------------------------|
       * *   *   * *   *   *               * *   *
Verse Continued
d------------------------------------|
A------------------------------------|
F----------0---0-----0---0---0-0-0-0-|
C------4-4-4-4-4-4-4-4-4-4-4-4-4-4-4-|
G------5-5-5-5-5-5-5-5-5-5-5-5-5-5-5-|
C------------------------------------|
       * *   *   * *   *   *

Bridge
d------0---------x---0----|
A------0---------x---0----|
F------x---------7---7----|           x2
C------10--------7---7----|
G------10--------5---0----|
C------10--------5---0----|

Chorus
d------x---0---x---0---|--0--0--0-|
A------x---0---x---0---|--1--0--0-|
F------7---7---x---5-x3|--2--5--7-|
C------7---7---2---5---|--2--5--7-|
G------5---0---2---3---|--0--3--5-|
C------5---0---2---x---|--x--x--x-|

Bridge
d------0----x-----x---0----|
A------0----x-----x---0----|
F------x----x-----7---7----|           x2
C------10---2-----7---7----|
G------10---2-----5---0----|
C------10---2-----5---0----|

Chorus
d------x---0---x---0---|--0--0--0-|
A------x---0---x---0---|--1--0--0-|
F------7---7---x---5-x3|--2--5--7-|
C------7---7---2---5---|--2--5--7-|
G------5---0---2---3---|--0--3--5-|
C------5---0---2---x---|--x--x--x-|

If you dont like it. think its crap. hate me for getting even the slightest
thing wrong. suckadik. good luck finding another tab for this particular version.
if its helped you awesome. add it to your collection of panty droppers.
Suggest correction
Give kudos to tab author, rate the tab!
1 2 3 4 5
comments
print report bad tab
2 comments total.
0 reply
bburn7840 10 Jul 11, 2012 04:48 PM

it would probably sound perfect if i were better at playing. but ive watched the video and this looks perfect. thank you

0 reply
shkuipers 18 Oct 22, 2015 06:26 PM

for anybody that wants to know the tabs for the lead lick:

d|-------------------------------------------------------------|
A|-12h13p12-------15----------12h1312-------15-----------------|
F|----------14-12----12-11-12---------14-12----12/11-----------|
C|-------------------------------------------------------------|
G|-------------------------------------------------------------|
C|-------------------------------------------------------------|

guest
You may want to rate the tab now too:
select rating
Wanna post a correction for this tab? Suggest correction