Oops, an error
Loading. Please wait.

Skyway Avenue Tab

version 2
version 2
12,488 views 1 this week
12 commentsread comments
1 2 3 4 5
x 3
add to favorites
launch autoscroll
font size
0
reset
how to read this tab
guitar tuner
Autoscroll
slow
fast
+/-
esc
set tempo
stop
Help us to improve Ultimate-Guitar.com Take our survey!
×
Author
Tuning
D A D G B E
Skyway Avenue - We the Kings




Not a very hard song, but a very well composed one.

Guitar 1 - Drop D# (eb Bb Gb Db Ab Db)
Guitar 2 - Drop D  (e B G D A D)


Intro: (x2)

Guitar 1:

|----10--10----10----10--10101010--|
|-----8---8-----8-----8---7-7-7-7--|
|-0-0---0---0-0---0-0---0----------|
|----------------------------------|
|----------------------------------|
|----------------------------------|



Then: (x2)

Guitar 1:
(UPDATE - wasn't relative to this guitars tuning)


|-------------------------|------------------------|
|-12-13-12--10-8-7-8-7-8--|-12-13-12--10-8-7-6-7-5-|
|-------------------------|------------------------|
|--9-10--9---7-5-4-5-4-5--|--9-10--9---7-5-4-5-4-2-|
|-------------------------|------------------------|
|-------------------------|------------------------|

Guitar 2:

|-------------------------|-------------------------|
|-------------------------|-------------------------|
|-------------------------|-------------------------|
|-9-9-9-9-9-9-9-9-9-9-9-9-|-4-4-4-4-4-4-4-4-6-6-6-6-|
|-9-9-9-9-9-9-9-9-9-9-9-9-|-4-4-4-4-4-4-4-4-6-6-6-6-|
|-9-9-9-9-9-9-9-9-9-9-9-9-|-4-4-4-4-4-4-4-4-6-6-6-6-|

Not sure strummings right

Verse:

Guitar 1:
Plays intro pt.1 x2 for one round of guitar 2.

Guitar 2:

|-----------------------------|-------------------------------|
|-----------------------------|-------------------------------|
|-----------------------------|-------------------------------|  repeat
|-----------------------------|---------------6---6---6-6-6-6-|
|-----9---9-----9---9-9-9-9-9-|-----4---4-4-4-4-4-4-4-4-4-4-4-|
|-9-9-9-9-9-9-9-9-9-9-9-9-9-9-|-4-4-4-4-4-4-4-----------------|

Not sure strummings right

Pre-Chorus:


|-------|-------|-------|-------------------|
|-------|-------|-------|-------------------|
|-------|-------|-------|-------------------|
|-9--4--|-6--6--|-9--4--|-6-6-6-6-6-6-6-6-6-|
|-9--4--|-4--6--|-9--4--|-4-4-4-4-4-6-6-6-6-|
|-9--4--|----6--|-9--4--|-----------6-6-6-6-|


Chorus:

Guitar 1:

(sorta hard to hear)

|-   I'm gonna put this in the update really soon
|-
|-
|-
|-
|-

Guitar 2:

|---------|---------|---------|---------------|
|---------|---------|---------|---------------|
|---------|---------|---------|---------------|
|-4-------|-6-------|-4-------|-8------6------|
|-4-(x16)-|-4-(x16)-|-2-(x16)-|-6-(x8)-4-(x8)-|
|-4-------|---------|---------|---------------|

Then:

|---------------------------------------|
|---------------------------------------|
|---------------------------------------|
|-4-4-4-4-4--9---6-6-6-6--4-4-4--4-4----|
|-4-4-4-4-4--9---6-6-6-6--4-4-4--4-4----|
|-4-4-4-4-4--9---6-6-6-6--4-4-4--4-4----|


Then Back Into the Beginning.




Repeat Verse




Repeat Chorus



Bridge:

You figure out strumming, I'm getting lazy :P

|-----|-----|----|-----|
|-----|-----|----|-----|
|-----|-----|----|-----|x2
|-4---|-9---|-6--|-4---|
|-4---|-9---|-6--|-4---|
|-4---|-9---|-6--|-4---|

Then Go back into the intro.
 

Then you go back into the chorus.  And that should be it!


Any questions just leave a comment.  I'm pretty sure this is right,
and if not.  Its pretty damn close.  Have fun with it!  



I just updated it, I'm not done though so I'll finish it up later!  Love yall

Suggest correction
Give kudos to tab author, rate the tab!
1 2 3 4 5
comments
print report bad tab
12 comments total. Showing first comments.
0 reply
soXlittleXtimeX 221 Nov 23, 2007 08:54 PM

the intro and chorus need to be played differently

listen closely to them again

-2 reply
dantheman0653 31 Nov 26, 2007 09:14 PM

VERSION 3 is betterr

+1 reply
Soupless 10 Nov 30, 2007 03:34 PM

version 3 isn't better.
this is pretty close.

guest
You may want to rate the tab now too:
select rating
Wanna post a correction for this tab? Suggest correction