Oops, an error
Loading. Please wait.

Skyway Avenue Acoustic ukulele

version 2
version 2

Whole song

Interactive

400 views 1 this week
no commentswrite comment
1 2 3 4 5
3 more votes to show rating
add to favorites
×
Save as Personal and add changes to this tab that will be seen only by you. Learn more ›
×
You can save this tab as Personal to edit and correct it or add notes. All changes will be seen only by you. Learn more »
launch autoscroll
font size
0
reset
transpose
0
reset
display chords
guitar tuner
edit
Autoscroll
slow
fast
+/-
esc
set tempo
stop
Strumming
There is no strumming pattern for this song yet. and get +5 IQ
----------------------------------------
ARTIST: We The Kings
SONG: Skyway Avenue (Live Acoustic)

Tuning: C# G# C# F# A# d#
        (Ignore how it says CGCFAd on the tabs, its CGCFAd sharps)

Tab by: Marc Ojales
Email: xitsmako@yahoo.com
----------------------------------------
Notes:

I decided to tab the acoustic verison since nobody has. It's around 98% correct. Not all
patterns are exact (they may be close, or some way off cause i'm to lazy to tab it
but you should be able to figure it out yourself. On both guitar, sometimes they play 
on strings A & d, however I didn't incorperate it into this tab.

[[ On the bottom I made a single guitar version. ]]
----------------------------------------


  *============= GUITAR 1 ============*

d|-------10--10-----10---10-10-10-10-10-10------------------------|
A|-------8---8------8----8--8--7--7--7--7-------------------------| ===========
F|-------0---0------0----0--0--0--0--0--0-------------------------|  Repeat x2
C|----------------------------------------------------------------| ===========
G|---8-8---8----8-8---8-8-----------------------------------------|
C|----------------------------------------------------------------|
     . .   .    . .    .

d|----------------------------------------------------------------|
A|----------------------------------------------------------------|
F|----------------------------------------------------------------|
C|---10--10---10-10-10-10---10--10---10-10-10-10------------------|
G|---10--10---10-10-10-10---10--10---10-10-10-10------------------|
C|---10--10---10-10-10-10---10--10---10-10-10-10------------------|

d|----------------------------------------------------------------|
A|----------------------------------------------------------------|
F|----------------------------------------------------------------|
C|---5--5---5-5-5-0---0-0-0-0-0-0-0-------------------------------|
G|---5--5---5-5-5-0---0-0-0-0-0-0-0-------------------------------|
C|---5--5---5-5-5-0---0-0-0-0-0-0-0-------------------------------|

d|----------------------------------------------------------------|
A|----------------------------------------------------------------|
F|---5--5---5-5-5-5---5--5---5-5-5-5------------------------------|
C|---5--5---5-5-5-5---5--5---5-5-5-5------------------------------|
G|---3--3---3-3-3-3---3--3---3-3-3-3------------------------------|
C|----------------------------------------------------------------|

d|----------------------------------------------------------------|
A|----------------------------------------------------------------|
F|----------------------------------------------------------------|
C|---5--5---5-5-5-0---0-0-0-0-0-0-0-------------------------------|
G|---5--5---5-5-5-0---0-0-0-0-0-0-0-------------------------------|
C|---5--5---5-5-5-0---0-0-0-0-0-0-0-------------------------------|

d|----------------------------------------------------------------|
A|----------------------------------------------------------------| ===========
F|---0-0-0-0-0-0-0-0--4-4-4-4--0-0-0-0----------------------------|  Repeat x2
C|---2-2-2-2-2-2-2-2--5-5-5-5--4-4-4-4----------------------------| ===========
G|---3-3-3-3-3-3-3-3--0-0-0-0--5-5-5-5----------------------------|
C|----------------------------------------------------------------|

d|-  NOTE: This is the correct chords in the right order, but  ---
A|-        figure out the pattern, it's really easy.           --- ===========
F|---0-0-0-0-0-0-0-0--4-4-4-4--0-0-0-0----------------------------|  Repeat x2
C|---2-2-2-2-2-2-2-2--5-5-5-5--4-4-4-4----------------------------| ===========
G|---3-3-3-3-3-3-3-3--0-0-0-0--5-5-5-5----------------------------|
C|----------------------------------------------------------------|

d|----------------------------------------------------------------|
A|----------------------------------------------------------------|
F|----------------------------------------------------------------| NOT TABBED
C|----------------------------------------------------------------|
G|----------------------------------------------------------------|
C|----------------------------------------------------------------|

d|----------------------------------------------------------------|
A|----------------------------------------------------------------| ===========
F|---------------------------2-2-2-2-2-2-5-5-5-5-5-5--------------|  Repeat x2
C|---5-5-5-5-5-5-0-0-0-0-0-0-2-2-2-2-2-2-3-3-3-3-3-3--------------| ===========
G|---5-5-5-5-5-5-0-0-0-0-0-0-0-0-0-0-0-0-3-3-3-3-3-3--------------|
C|---5-5-5-5-5-5-0-0-0-0-0-0-------------3-3-3-3-3-3--------------|

d|----------------------------------------------------------------|
A|----------------------------------------------------------------|
F|---------------------------2-2-2-2-2-2-5-5-5-5-5-5--------------|
C|---5-5-5-5-5-5-0-0-0-0-0-0-2-2-2-2-2-2-5-5-5-5-5-5--------------|
G|---5-5-5-5-5-5-0-0-0-0-0-0-0-0-0-0-0-0-3-3-3-3-3-3--------------|
C|---5-5-5-5-5-5-0-0-0-0-0-0--------------------------------------|

d|----------------------------------------------------------------|
A|----------------------------------------------------------------|
F|---2-2-2-2-2-2-2-2-2-2-5-5-5-5-5-7s3----------------------------|
C|---2-2-2-2-2-2-2-2-2-2-5-5-5-5-5-7s3----------------------------|
G|---0-0-0-0-0-0-0-0-0-0-3-3-3-3-3-5s1----------------------------|
C|----------------------------------------------------------------|

d|-  NOTE: This is the correct chords in the right order, but  ---
A|-        figure out the pattern, it's really easy.           ---
F|---0-0-0-0-0-0-0-0--4-4-4-4--0-0-0-0----------------------------|
C|---2-2-2-2-2-2-2-2--5-5-5-5--4-4-4-4----------------------------|
G|---3-3-3-3-3-3-3-3--0-0-0-0--5-5-5-5----------------------------|
C|----------------------------------------------------------------|

d|-  NOTE: This is the correct chords in the right order, but  ---
A|-        figure out the pattern, it's really easy.           ---
F|---5-5-5-5-5-5-5-5--4-4-4-4--0-0-0-0----------------------------|
C|---3-3-3-3-3-3-3-3--5-5-5-5--4-4-4-4----------------------------|
G|---3-3-3-3-3-3-3-3--0-0-0-0--5-5-5-5----------------------------|
C|---3-3-3-3-3-3-3-3----------------------------------------------|

d|-  NOTE: This is the correct chords in the right order, but  ---
A|-        figure out the pattern, it's really easy.           --- ===========
F|---0-0-0-0-0-0-0-0--4-4-4-4--0-0-0-0----------------------------|  Repeat x2
C|---2-2-2-2-2-2-2-2--5-5-5-5--4-4-4-4----------------------------| ===========
G|---3-3-3-3-3-3-3-3--0-0-0-0--5-5-5-5----------------------------|
C|----------------------------------------------------------------|

d|----------------------------------------------------------------|
A|----------------------------------------------------------------|
F|----------------------------------------------------------------| NOT TABBED
C|----------------------------------------------------------------|
G|----------------------------------------------------------------|
C|----------------------------------------------------------------|

d|----------------------------------------------------------------|
A|----------------------------------------------------------------| ===========
F|---------------------------2-2-2-2-2-2-5-5-5-5-5-5--------------|  Repeat x2
C|---5-5-5-5-5-5-0-0-0-0-0-0-2-2-2-2-2-2-3-3-3-3-3-3--------------| ===========
G|---5-5-5-5-5-5-0-0-0-0-0-0-0-0-0-0-0-0-3-3-3-3-3-3--------------|
C|---5-5-5-5-5-5-0-0-0-0-0-0-------------3-3-3-3-3-3--------------|

d|----------------------------------------------------------------|
A|----------------------------------------------------------------|
F|---------------------------2-2-2-2-2-2-5-5-5-5-5-5--------------|
C|---5-5-5-5-5-5-0-0-0-0-0-0-2-2-2-2-2-2-5-5-5-5-5-5--------------|
G|---5-5-5-5-5-5-0-0-0-0-0-0-0-0-0-0-0-0-3-3-3-3-3-3--------------|
C|---5-5-5-5-5-5-0-0-0-0-0-0--------------------------------------|

d|----------------------------------------------------------------|
A|----------------------------------------------------------------|
F|---2-2-2-2-2-2-2-2-2-2-5-5-5-5-5-7-7-7-7-7-7--------------------|
C|---2-2-2-2-2-2-2-2-2-2-5-5-5-5-5-7-7-7-7-7-7--------------------|
G|---0-0-0-0-0-0-0-0-0-0-3-3-3-3-3-5-5-5-5-5-5--------------------|
C|----------------------------------------------------------------|

d|----------------------------------------------------------------|
A|----------------------------------------------------------------|
F|---0-0-0-0-0-0-0-0-0-0-5-5-5-5-5-5-5-5-5-5----------------------|
C|---2-2-2-2-2-2-2-2-2-2-5-5-5-5-5-5-5-5-5-5----------------------|
G|---2-2-2-2-2-2-2-2-2-2-3-3-3-3-3-3-3-3-3-3----------------------|
C|----------------------------------------------------------------|

d|----------------------------------------------------------------|
A|----------------------------------------------------------------|
F|----------------------------------------------------------------|
C|---5-5-5-5-5-5-5-5-5-5-0-0-0-0-0-0-0-0-0-0----------------------|
G|---5-5-5-5-5-5-5-5-5-5-0-0-0-0-0-0-0-0-0-0----------------------|
C|---5-5-5-5-5-5-5-5-5-5-0-0-0-0-0-0-0-0-0-0----------------------|

d|----------------------------------------------------------------|
A|----------------------------------------------------------------|
F|---0-0-0-0-0-0-0-0-0-0-5-5-5-5-5-5-5-5-5-5----------------------|
C|---2-2-2-2-2-2-2-2-2-2-5-5-5-5-5-5-5-5-5-5----------------------|
G|---2-2-2-2-2-2-2-2-2-2-3-3-3-3-3-3-3-3-3-3----------------------|
C|----------------------------------------------------------------|

d|----------------------------------------------------------------|
A|----------------------------------------------------------------|
F|----------------------------------------------------------------|
C|---5-5-5-5-5-5-5-5-5-5-0-0-0-0-0-0-0-0-0-0----------------------|
G|---5-5-5-5-5-5-5-5-5-5-0-0-0-0-0-0-0-0-0-0----------------------|
C|---5-5-5-5-5-5-5-5-5-5-0-0-0-0-0-0-0-0-0-0----------------------|

d|----------------------------------------------------------------|
A|----------------------------------------------------------------|
F|---5-5-5-5-5-5-5-5-5-5------------------------------------------|
C|---5-5-5-5-5-5-5-5-5-5-5-5-5-5-5-5-5-5-5-5----------------------|
G|---3-3-3-3-3-3-3-3-3-3-5-5-5-5-5-5-5-5-5-5----------------------|
C|-----------------------5-5-5-5-5-5-5-5-5-5----------------------|

d|----------------------------------------------------------------|
A|----------------------------------------------------------------|
F|-----------------------5-5-5-5-5-5-5-5-5-5----------------------|
C|---0-0-0-0-0-0-0-0-0-0-5-5-5-5-5-5-5-5-5-5----------------------|
G|---0-0-0-0-0-0-0-0-0-0-3-3-3-3-3-3-3-3-3-3----------------------|
C|---0-0-0-0-0-0-0-0-0-0------------------------------------------|

d|----------------------------------------------------------------|
A|----------------------------------------------------------------|
F|----------------------------------------------------------------|
C|---5-5-5-5-0-0-0-0----------------------------------------------|
G|---5-5-5-5-0-0-0-0----------------------------------------------|
C|---5-5-5-5-0-0-0-0----------------------------------------------|

d|----------------------------------------------------------------|
A|----------------------------------------------------------------| ===========
F|---------------------------2-2-2-2-2-2-5-5-5-5-5-5--------------|  Repeat x2
C|---5-5-5-5-5-5-0-0-0-0-0-0-2-2-2-2-2-2-3-3-3-3-3-3--------------| ===========
G|---5-5-5-5-5-5-0-0-0-0-0-0-0-0-0-0-0-0-3-3-3-3-3-3--------------|
C|---5-5-5-5-5-5-0-0-0-0-0-0-------------3-3-3-3-3-3--------------|

d|----------------------------------------------------------------|
A|----------------------------------------------------------------|
F|---------------------------2-2-2-2-2-2-5-5-5-5-5-5--------------|
C|---5-5-5-5-5-5-0-0-0-0-0-0-2-2-2-2-2-2-5-5-5-5-5-5--------------|
G|---5-5-5-5-5-5-0-0-0-0-0-0-0-0-0-0-0-0-3-3-3-3-3-3--------------|
C|---5-5-5-5-5-5-0-0-0-0-0-0--------------------------------------|

d|----------------------------------------------------------------|
A|----------------------------------------------------------------|
F|---2-2-2-2-2-2-2-2-2-2-5-5-5-5-5-7-7-7-7-7-7--------------------|
C|---2-2-2-2-2-2-2-2-2-2-5-5-5-5-5-7-7-7-7-7-7--------------------|
G|---0-0-0-0-0-0-0-0-0-0-3-3-3-3-3-5-5-5-5-5-5--------------------|
C|----------------------------------------------------------------|

d|----------------------------------------------------------------|
A|----------------------------------------------------------------|
F|---0----5----7----5---------------------------------------------|
C|---2----5----7----5---------------------------------------------|
G|---2----3----5----5---------------------------------------------|
C|----------------------------------------------------------------|

  *============= GUITAR 2 ============*

d|----------------------------------------------------------------|
A|----------------------------------------------------------------|
F|----------------------------------------------------------------|
C|----------------------------------------------------------------|
G|----------------------------------------------------------------|
C|----------------------------------------------------------------|

d|----------------------------------------------------------------|
A|------------------15---------------------------15---------------|
F|---12h14p12-12--12--12-11-12-12h14p12-12--11-11--12-11----------|
C|--------------12------------------------12----------------------|
G|----------------------------------------------------------------|
C|----------------------------------------------------------------|

d|----------------------------------------------------------------|
A|------------------15------------------------15------------------|
F|---12h14p12-12--12--12-11-12-12h14p12-12--11--12-11-------------|
C|--------------12------------------------12----------------------|
G|----------------------------------------------------------------|
C|----------------------------------------------------------------|

d|-  NOTE: This is the correct chords in the right order, but  ---
A|-        figure out the pattern, it's really easy.           --- ===========
F|---7-7-7---7-----7-7-7-7---7-7-7----7--7----7------7-7-7-7--7-7-|  Repeat x4
C|---5-5-5---7-----5-5-5-5---5-5-5----5--5----5(0)---5-5-5-5--4-4-| ===========
G|---3-3-3---3-----3-3-3-3---3-3-3----5--5----5(0)---5-5-5-5------|
C|------------------------------------5--5----5(0)----------------|
     . .            . .               .  .

d|----------------------------------------------------------------|
A|----------------------------------------------------------------| ===========
F|-----------------------------------5--5--5-5-5--7--7--7-7-7-----|  Repeat x2
C|---10--10--10-10-10--2--2--2-2-2---5--5--5-5-5--7--7--7-7-7-----| ===========
G|---10--10--10-10-10--2--2--2-2-2---3--3--3-3-3--5--5--5-5-5-----|
C|---10--10--10-10-10--2--2--2-2-2--------------------------------|

d|----------------------------------------------------------------|
A|----------------------------------------------------------------|
F|----------------------------------------------------------------|  NOT TABBED
C|----------------------------------------------------------------|
G|----------------------------------------------------------------|
C|----------------------------------------------------------------|

d|----------------------------------------------------------------|
A|----------------------------------------------------------------|  NOT TABBED
F|----------------------------------------------------------------|
C|----------------------------------------------------------------|
G|----------------------------------------------------------------|
C|----------------------------------------------------------------|

d|----------------------------------------------------------------|
A|----------------------------------------------------------------|
F|---------------------------------------5-5-5-5-5-5--------------|
C|---5-5-5-5-5-5-0-0-0-0-0-0-2-2-2-2-2-2-3-3-3-3-3-3--------------|
G|---5-5-5-5-5-5-0-0-0-0-0-0-2-2-2-2-2-2-3-3-3-3-3-3--------------|
C|---5-5-5-5-5-5-0-0-0-0-0-0-2-2-2-2-2-2-3-3-3-3-3-3--------------|

d|----------------------------------------------------------------|
A|----------------------------------------------------------------|
F|---------------------------2-2-2-2-2-2-5-5-5-5-5-5--------------|
C|---5-5-5-5-5-5-0-0-0-0-0-0-2-2-2-2-2-2-5-5-5-5-5-5--------------|
G|---5-5-5-5-5-5-0-0-0-0-0-0-0-0-0-0-0-0-3-3-3-3-3-3--------------|
C|---5-5-5-5-5-5-0-0-0-0-0-0--------------------------------------|

d|----------------------------------------------------------------|
A|----------------------------------------------------------------|
F|---2-2-2-2-2-2-2-2-2-2-5-5-5-5-5-7s3----------------------------|
C|---2-2-2-2-2-2-2-2-2-2-5-5-5-5-5-7s3----------------------------|
G|---0-0-0-0-0-0-0-0-0-0-3-3-3-3-3-5s1----------------------------|
C|----------------------------------------------------------------|

d|----------------------------------------------------------------|
A|----------------------------------------------------------------|
F|----------------------------------------------------------------|
C|---2-2-2-2-2-2-2-2-2-2-5-5-5-5-5-5-5-5-5-5-5--------------------|
G|---2-2-2-2-2-2-2-2-2-2-5-5-5-5-5-5-5-5-5-5-5--------------------|
C|---2-2-2-2-2-2-2-2-2-2-3-3-3-3-3-3-3-3-3-3-3--------------------|

d|----------------------------------------------------------------|
A|----------------------------------------------------------------|
F|-----------------------7-7-7-7-9-9-9-9-11-11-11-11-14-14-14-14--|
C|---5-5-5-5-5-5-5-5-5-5-0-0-0-0-0-0-0-0-0-0-0-0-0-0-0-0-0-0-0-0--|
G|---5-5-5-5-5-5-5-5-5-5------------------------------------------|
C|---5-5-5-5-5-5-5-5-5-5------------------------------------------|

d|----------------------------------------------------------------|
A|----------------------------------------------------------------|
F|----------------------------------------------------------------|
C|---2---2---2---2---2---2--5-5-5-5-5-5-5-5-5-5-5-----------------|
G|---2---2---2---2---2---2--5-5-5-5-5-5-5-5-5-5-5-----------------|
C|---2---2---2---2---2---2--3-3-3-3-3-3-3-3-3-3-3-----------------|

d|----------------------------------------------------------------|
A|----------------------------------------------------------------|
F|----------------------------------------------------------------|
C|---5-5-5-5-5-5-5-5-5-5-0-0-0-0-0-0-0-0-0-0----------------------|
G|---5-5-5-5-5-5-5-5-5-5-0-0-0-0-0-0-0-0-0-0----------------------|
C|---5-5-5-5-5-5-5-5-5-5-0-0-0-0-0-0-0-0-0-0----------------------|

d|----------------------------------------------------------------|
A|------------------15------------------------15------------------| ===========
F|---12h14p12-12--12--12-11-12-12h14p12-12--11--12-11-------------|  Repeat x2
C|--------------12------------------------12----------------------| ===========
G|----------------------------------------------------------------|
C|----------------------------------------------------------------|

d|----------------------------------------------------------------|
A|----------------------------------------------------------------| ===========
F|----------------------------------------------------------------|  Repeat x2
C|---5-5-5-5-5-5-0-0-0-0-0-0-2-2-2-2-2-2-5-5-5-5-5-5--------------| ===========
G|---5-5-5-5-5-5-0-0-0-0-0-0-2-2-2-2-2-2-5-5-5-5-5-5--------------|
C|---5-5-5-5-5-5-0-0-0-0-0-0-2-2-2-2-2-2-3-3-3-3-3-3--------------|

d|----------------------------------------------------------------|
A|----------------------------------------------------------------|
F|---------------------------------------5-5-5-5-5-5--------------|
C|---5-5-5-5-5-5-0-0-0-0-0-0-2-2-2-2-2-2-5-5-5-5-5-5--------------|
G|---5-5-5-5-5-5-0-0-0-0-0-0-2-2-2-2-2-2-3-3-3-3-3-3--------------|
C|---5-5-5-5-5-5-0-0-0-0-0-0-2-2-2-2-2-2--------------------------|

d|--------0-0-0-0-------------------------------------------------|
A|--------0-0-0-0-------------------------------------------------|
F|---2----2-2-2-2-5-5-5-5-5-7-7-7-7-7-7---------------------------|
C|---2----2-2-2-2-5-5-5-5-5-7-7-7-7-7-7---------------------------|
G|---0----0-0-0-0-3-3-3-3-3-5-5-5-5-5-5---------------------------|
C|------------------------------------5---------------------------|


---------------------
=====================
=== Single Guitar ===

d|-------10--10-----10---10-10-10-10-10-10------------------------|
A|-------8---8------8----8--8--7--7--7--7-------------------------| ===========
F|-------0---0------0----0--0--0--0--0--0-------------------------|  Repeat x2
C|----------------------------------------------------------------| ===========
G|---8-8---8----8-8---8-8-----------------------------------------|
C|----------------------------------------------------------------|
     . .   .    . .    .

d|----------------------------------------------------------------|
A|----------------------------------------------------------------|
F|----------------------------------------------------------------|
C|---10--10---10-10-10-10---10--10---10-10-10-10------------------|
G|---10--10---10-10-10-10---10--10---10-10-10-10------------------|
C|---10--10---10-10-10-10---10--10---10-10-10-10------------------|

d|----------------------------------------------------------------|
A|----------------------------------------------------------------|
F|----------------------------------------------------------------|
C|---5--5---5-5-5-0---0-0-0-0-0-0-0-------------------------------|
G|---5--5---5-5-5-0---0-0-0-0-0-0-0-------------------------------|
C|---5--5---5-5-5-0---0-0-0-0-0-0-0-------------------------------|

d|----------------------------------------------------------------|
A|----------------------------------------------------------------|
F|---5--5---5-5-5-5---5--5---5-5-5-5------------------------------|
C|---5--5---5-5-5-5---5--5---5-5-5-5------------------------------|
G|---3--3---3-3-3-3---3--3---3-3-3-3------------------------------|
C|----------------------------------------------------------------|

d|----------------------------------------------------------------|
A|----------------------------------------------------------------|
F|----------------------------------------------------------------|
C|---5--5---5-5-5-0---0-0-0-0-0-0-0-------------------------------|
G|---5--5---5-5-5-0---0-0-0-0-0-0-0-------------------------------|
C|---5--5---5-5-5-0---0-0-0-0-0-0-0-------------------------------|

d|-  NOTE: This is the correct chords in the right order, but  ---
A|-        figure out the pattern, it's really easy.           --- ===========
F|---7-7-7---7-----7-7-7-7---7-7-7----7--7----7------7-7-7-7--7-7-|  Repeat x4
C|---5-5-5---7-----5-5-5-5---5-5-5----5--5----5(0)---5-5-5-5--4-4-| ===========
G|---3-3-3---3-----3-3-3-3---3-3-3----5--5----5(0)---5-5-5-5------|
C|------------------------------------5--5----5(0)----------------|
     . .            . .               .  .

d|----------------------------------------------------------------|
A|----------------------------------------------------------------| ===========
F|-----------------------------------5--5--5-5-5--7--7--7-7-7-----|  Repeat x2
C|---10--10--10-10-10--2--2--2-2-2---5--5--5-5-5--7--7--7-7-7-----| ===========
G|---10--10--10-10-10--2--2--2-2-2---3--3--3-3-3--5--5--5-5-5-----|
C|---10--10--10-10-10--2--2--2-2-2--------------------------------|

d|----------------------------------------------------------------|
A|----------------------------------------------------------------| ===========
F|---------------------------2-2-2-2-2-2-5-5-5-5-5-5--------------|  Repeat x2
C|---5-5-5-5-5-5-0-0-0-0-0-0-2-2-2-2-2-2-3-3-3-3-3-3--------------| ===========
G|---5-5-5-5-5-5-0-0-0-0-0-0-0-0-0-0-0-0-3-3-3-3-3-3--------------|
C|---5-5-5-5-5-5-0-0-0-0-0-0-------------3-3-3-3-3-3--------------|

d|----------------------------------------------------------------|
A|----------------------------------------------------------------|
F|---------------------------2-2-2-2-2-2-5-5-5-5-5-5--------------|
C|---5-5-5-5-5-5-0-0-0-0-0-0-2-2-2-2-2-2-5-5-5-5-5-5--------------|
G|---5-5-5-5-5-5-0-0-0-0-0-0-0-0-0-0-0-0-3-3-3-3-3-3--------------|
C|---5-5-5-5-5-5-0-0-0-0-0-0--------------------------------------|

d|----------------------------------------------------------------|
A|----------------------------------------------------------------|
F|---2-2-2-2-2-2-2-2-2-2-5-5-5-5-5-7s3----------------------------|
C|---2-2-2-2-2-2-2-2-2-2-5-5-5-5-5-7s3----------------------------|
G|---0-0-0-0-0-0-0-0-0-0-3-3-3-3-3-5s1----------------------------|
C|----------------------------------------------------------------|

d|-  NOTE: This is the correct chords in the right order, but  ---
A|-        figure out the pattern, it's really easy.           --- ===========
F|---7-7-7---7-----7-7-7-7---7-7-7----7--7----7------7-7-7-7--7-7-|  Repeat x4
C|---5-5-5---7-----5-5-5-5---5-5-5----5--5----5(0)---5-5-5-5--4-4-| ===========
G|---3-3-3---3-----3-3-3-3---3-3-3----5--5----5(0)---5-5-5-5------|
C|------------------------------------5--5----5(0)----------------|
     . .            . .               .  .

d|----------------------------------------------------------------|
A|----------------------------------------------------------------| ===========
F|-----------------------------------5--5--5-5-5--7--7--7-7-7-----|  Repeat x2
C|---10--10--10-10-10--2--2--2-2-2---5--5--5-5-5--7--7--7-7-7-----| ===========
G|---10--10--10-10-10--2--2--2-2-2---3--3--3-3-3--5--5--5-5-5-----|
C|---10--10--10-10-10--2--2--2-2-2--------------------------------|

d|----------------------------------------------------------------|
A|----------------------------------------------------------------| ===========
F|---------------------------2-2-2-2-2-2-5-5-5-5-5-5--------------|  Repeat x2
C|---5-5-5-5-5-5-0-0-0-0-0-0-2-2-2-2-2-2-3-3-3-3-3-3--------------| ===========
G|---5-5-5-5-5-5-0-0-0-0-0-0-0-0-0-0-0-0-3-3-3-3-3-3--------------|
C|---5-5-5-5-5-5-0-0-0-0-0-0-------------3-3-3-3-3-3--------------|

d|----------------------------------------------------------------|
A|----------------------------------------------------------------|
F|---------------------------2-2-2-2-2-2-5-5-5-5-5-5--------------|
C|---5-5-5-5-5-5-0-0-0-0-0-0-2-2-2-2-2-2-5-5-5-5-5-5--------------|
G|---5-5-5-5-5-5-0-0-0-0-0-0-0-0-0-0-0-0-3-3-3-3-3-3--------------|
C|---5-5-5-5-5-5-0-0-0-0-0-0--------------------------------------|

d|----------------------------------------------------------------|
A|----------------------------------------------------------------|
F|---2-2-2-2-2-2-2-2-2-2-5-5-5-5-5-7-7-7-7-7-7--------------------|
C|---2-2-2-2-2-2-2-2-2-2-5-5-5-5-5-7-7-7-7-7-7--------------------|
G|---0-0-0-0-0-0-0-0-0-0-3-3-3-3-3-5-5-5-5-5-5--------------------|
C|----------------------------------------------------------------|

d|----------------------------------------------------------------|
A|----------------------------------------------------------------|
F|---0-0-0-0-0-0-0-0-0-0-5-5-5-5-5-5-5-5-5-5----------------------|
C|---2-2-2-2-2-2-2-2-2-2-5-5-5-5-5-5-5-5-5-5----------------------|
G|---2-2-2-2-2-2-2-2-2-2-3-3-3-3-3-3-3-3-3-3----------------------|
C|----------------------------------------------------------------|

d|----------------------------------------------------------------|
A|----------------------------------------------------------------|
F|----------------------------------------------------------------|
C|---5-5-5-5-5-5-5-5-5-5-0-0-0-0-0-0-0-0-0-0----------------------|
G|---5-5-5-5-5-5-5-5-5-5-0-0-0-0-0-0-0-0-0-0----------------------|
C|---5-5-5-5-5-5-5-5-5-5-0-0-0-0-0-0-0-0-0-0----------------------|

d|----------------------------------------------------------------|
A|----------------------------------------------------------------|
F|---0-0-0-0-0-0-0-0-0-0-5-5-5-5-5-5-5-5-5-5----------------------|
C|---2-2-2-2-2-2-2-2-2-2-5-5-5-5-5-5-5-5-5-5----------------------|
G|---2-2-2-2-2-2-2-2-2-2-3-3-3-3-3-3-3-3-3-3----------------------|
C|----------------------------------------------------------------|

d|----------------------------------------------------------------|
A|----------------------------------------------------------------|
F|----------------------------------------------------------------|
C|---5-5-5-5-5-5-5-5-5-5-0-0-0-0-0-0-0-0-0-0----------------------|
G|---5-5-5-5-5-5-5-5-5-5-0-0-0-0-0-0-0-0-0-0----------------------|
C|---5-5-5-5-5-5-5-5-5-5-0-0-0-0-0-0-0-0-0-0----------------------|

d|----------------------------------------------------------------|
A|----------------------------------------------------------------|
F|---5-5-5-5-5-5-5-5-5-5------------------------------------------|
C|---5-5-5-5-5-5-5-5-5-5-5-5-5-5-5-0-0-0-0-0----------------------|
G|---3-3-3-3-3-3-3-3-3-3-5-5-5-5-5-0-0-0-0-0----------------------|
C|-----------------------5-5-5-5-5-0-0-0-0-0----------------------|

d|----------------------------------------------------------------|
A|----------------------------------------------------------------|
F|---5-5-5-5-5-5-5-5-5-5------------------------------------------|
C|---5-5-5-5-5-5-5-5-5-5----5-5-5-5-0-0-0-0-----------------------|
G|---3-3-3-3-3-3-3-3-3-3----5-5-5-5-0-0-0-0-----------------------|
C|--------------------------5-5-5-5-0-0-0-0-----------------------|

d|----------------------------------------------------------------|
A|----------------------------------------------------------------| ===========
F|---------------------------2-2-2-2-2-2-5-5-5-5-5-5--------------|  Repeat x2
C|---5-5-5-5-5-5-0-0-0-0-0-0-2-2-2-2-2-2-3-3-3-3-3-3--------------| ===========
G|---5-5-5-5-5-5-0-0-0-0-0-0-0-0-0-0-0-0-3-3-3-3-3-3--------------|
C|---5-5-5-5-5-5-0-0-0-0-0-0-------------3-3-3-3-3-3--------------|

d|----------------------------------------------------------------|
A|----------------------------------------------------------------|
F|---------------------------2-2-2-2-2-2-5-5-5-5-5-5--------------|
C|---5-5-5-5-5-5-0-0-0-0-0-0-2-2-2-2-2-2-5-5-5-5-5-5--------------|
G|---5-5-5-5-5-5-0-0-0-0-0-0-0-0-0-0-0-0-3-3-3-3-3-3--------------|
C|---5-5-5-5-5-5-0-0-0-0-0-0--------------------------------------|

d|----------------------------------------------------------------|
A|----------------------------------------------------------------|
F|---2-2-2-2-2-2-2-2-2-2-5-5-5-5-5-7-7-7-7-7-7--------------------|
C|---2-2-2-2-2-2-2-2-2-2-5-5-5-5-5-7-7-7-7-7-7--------------------|
G|---0-0-0-0-0-0-0-0-0-0-3-3-3-3-3-5-5-5-5-5-5--------------------|
C|----------------------------------------------------------------|

d|----------------------------------------------------------------|
A|----------------------------------------------------------------|
F|---0----5----7----5---------------------------------------------|
C|---2----5----7----5---------------------------------------------|
G|---2----3----5----5---------------------------------------------|
C|----------------------------------------------------------------|
Suggest correction
Creating personal tab
Creating personal tab
You can edit any tab online and save it as your Personal.

You can edit, replace or remove any tab part or add personal notes – all changes will be seen only by you.

Personal tabs can be accessed anytime from any device, even offline.
Learn more »
Give kudos to tab author, rate the tab!
1 2 3 4 5
comments
print report bad tab
guest
Wanna post a correction for this tab? Suggest correction