Oops, an error
Loading. Please wait.

Skyway Avenue Chords

version 4
version 4

Whole song

Interactive

11,083 views 3 this week
no commentswrite comment
1 2 3 4 5
please rate
add to favorites
launch autoscroll
font size
0
reset
transpose
0
reset
display chords
guitar tuner
Autoscroll
slow
fast
+/-
esc
set tempo
stop
Help us to improve Ultimate-Guitar.com Take our survey!
×
Author
Tuning
D# G# C# F# A# D#
-------------------------------------------------------------------------------
                             Skyway Avenue- We the Kings
-------------------------------------------------------------------------------
Tuning: drop d

e|------------------------------------------------------------------------------|
B |---7-7---7--7-666------------------------------------------------------------|
G|--------------------(2x)------------------------------------------------------|
D|-44-4-444-44-4----------------------------------------------------------------|
A|------------------------------------------------------------------------------|
d|------------------------------------------------------------------------------|

 Rhythm         B                                            F#     C#

e|---------------9------------------------9------------------------------------|
B|-11h12p11-9---------------11h12p11-9-----------------------------------------|
G|------------11--11h10p11-------------11--11-10--------(2X)-------------------|
D|-----------------------------------------------------------------------------|
A|-----------------------------------------------------------------------------|
d|-----------------------------------------------------------------------------|

VERSE
B
She said let's change our luck
F#               C#
this night is all we've got
B                                      F#
drive fast until we crash
       C#
this dead end life
B
sweet dreams that won't come true
F#             C#
I'd leave it all for you
B
brick walls are closing in
        F#        C#
let's make a run tonight

PRECHORUS

Bb   Eb  B         C#
blinded by the lights
Bb           Eb
hold you through forever
          B         C#
Won't let you go

CHORUS
                   F#
cause if you jump
  C#           Eb
I will jump too
            B
we will fall together
F#          C#            Eb
from the building's ledge
          B                      F#              C#
never looking back at what we've done
        Eb            B
we'll say it was love
G#
cause I would die for you
B               C#
on skyway avenue

VERSE 2

B                                                 F#
she said don't change your mind
                      C#
let's leave this town behind
B
we'll race right off the cliff
       F#       C#
they will remember this
B
it all got so mundane
F#                C#
with you I'm back again
B
just take me by the hand
        F#      C#
we're close to the edge

PRECHORUS

Bb   Eb  B         C#
blinded by the lights
Bb           Eb
hold you through forever
          B         C#
Won't let you go

CHORUS
                   F#
cause if you jump
  C#           Eb
I will jump too
            B
we will fall together
F#          C#            Eb
from the building's ledge
          B                      F#              C#
never looking back at what we've done
        Eb            B
we'll say it was love
G#
cause I would die for you
B               C#
on skyway avenue


Eb                                B
where are your guts to fly
                F#                          C#
soaring through, through the night
                Eb
and if you take that last step
              B
I'll follow you
             F#
leave the edge and fly
         C#
we're finally alive

Rhythm         B                                            F#     C#

e|---------------9------------------------9------------------------------------|
B|-11p12h11-9---------------11h12p11-9-----------------------------------------|
G|------------11--11h10p11-------------11--11-10-------------------------------|
D|-----------------------------------------------------------------------------|
A|-----------------------------------------------------------------------------|
d|-----------------------------------------------------------------------------|

e|---------------9-------------------------------------------------------------|
B|-11h12p11-9------------------------------------------------------------------|
G|------------11--11h10p11-11~~~~----------------------------------------------|
D|-----------------------------------------------------------------------------|
A|-----------------------------------------------------------------------------|
d|-----------------------------------------------------------------------------|
rhythm (slightly different than before--listen to the song for timing)
e|------------------------------------------------------------------------------------|
B|------------------------------------------------------------------------------------|
G|-4-------6--------------------------------------------------------------------------|
D|-4(16x) 4-6-------------------------------------------------------------------------|
A|-2-----4-4--------------------------------------------------------------------------|
E| -------4---------------------------------------------------------------------------|


CHORUS
                   F#
cause if you jump
  C#           Eb
I will jump too
            B
we will fall together
F#          C#            Eb
from the building's ledge
          B                      F#              C#
never looking back at what we've done
        Eb            B
we'll say it was love
G#
cause I would die for you
B               C#
on skyway avenue
G#                     B
so what's left to prove
             C#         F#
we have made it through

| /  slide up
| \  slide down
| H  hammer-on
| p  pull-off
| ~  vibrato
| +  harmonic
| x  Mute note
=============================================================================
Suggest correction
What's this?
You can suggest a correction to this tab. Community and Mods will review your correction and vote to approve or reject it.
comments
We did not receive enough feedback on this tab! Please rate:
print report bad tab
1 2 3 4 5
guest
You may want to rate the tab now too:
select rating
Please do not post tabs as comments. Select "correction" instead!