Oops, an error
Loading. Please wait.

Skyway Avenue Tab

version 5
version 5
7,205 views 6 this week
4 commentsread comments
1 2 3 4 5
accurate
x 3
add to favorites
launch autoscroll
font size
0
reset
how to read this tab
guitar tuner
Autoscroll
slow
fast
+/-
esc
set tempo
stop
Help us to improve Ultimate-Guitar.com Take our survey!
×
Author
Difficulty
novice
Drop C#
(C#, G#, C#, F#, A#, D#)

100% correct. This is how WTK really play it.


Intro
|----------------------------------|     
|----------------------------------|
|--------12-12----12---11-11-11----|
|--------12-12----12---12-12-12----| x2
|-10-10--------10------------------|
|----------------------------------|

Intro 2:
|----------------------------------|      
|----------------------------------|
|--5-----7-------------------------|
|--5--5--7-------------------------| x2
|--3--5--5-------------------------|
|-----5----------------------------|

other Intro 2:
|------------------------------------------------------|      
|--12h13p12-------15-----------12h13p12-------15-------|
|-----------14-12----12-11-12-----------14-12----12-11-|
|------------------------------------------------------| x2
|------------------------------------------------------|
|------------------------------------------------------|


Verse: (find out the strumming)
|----------------------------------|
|----------------------------------|
|--5-----7-------------------------|
|--5--5--7-------------------------| 4 or 5 times.
|--3--5--5-------------------------|
|-----5----------------------------|

Pre Chorus: 
|----------------------------------|
|----------------------------------|
|--4-------5---7-------------------|
|--4---2---5---7-------------------| x2
|--2---2---3---5-------------------|
|------2---------------------------|

Chorus: (figure out strumming)
|----------------------------------|
|----------------------------------|
|-----------5----------------------|
|--5--0--2--5--------7--10--12~----| idk how much times
|--5--0--2--3--------7--10--12~----|
|--5--0--2-----------7--10--12~----|

Go back to Verse

Bridge: (figure out strumming)
|----------------------------------|
|----------------------------------|
|-----5-----7----------------------|
|--2--5--5--7----------------------| x2
|--2--3--5--5----------------------|
|--2-----5-------------------------|

Go back to Intro 2

Chorus:
|-----------------------------------|
|-----------------------------------|
|-----------5-----------------------|
|--5--0--2--5-------7--10--12-------| 
|--5--0--2--3-------7--10--12-------|
|--5--0--2----------7--10--12-------|

End:
|------------------------------------|
|------------------------------------|
|------------------------------------|
|--7~--10~--12~--5~------------------| 
|--7~--10~--12~--5~------------------|
|--7~--10~--12~--5~------------------|
Suggest correction
Give kudos to tab author, rate the tab!
1 2 3 4 5
comments
print report bad tab
4 comments total. Showing first comments.
0 reply
Jarek_N_Michael 69 wrote on February 10 2008, 04:05 pm

uh... well it's alright I guess. but just play it in drop D. it'll be easier to tune. and other things. like strumming patterns and palm mutes

0 reply
blindinglight 41 wrote on February 12 2008, 03:41 pm

There are tons of easier ways to play the beginning.

0 reply
Shaggyoutlaw89 82 wrote on April 24 2008, 04:19 am

um not even close to 100% theres so much wrong and like everyone else ur missing the lead guitars chorus

guest
You may want to rate the tab now too:
select rating
Wanna post a correction for this tab? Suggest correction