Oops, an error
Loading. Please wait.

Skyway Avenue Tab

version 6
version 6
29,965 views 12 this week
1 commentread comment
1 2 3 4 5
excellent!
x 8
add to favorites
launch autoscroll
font size
0
reset
how to read this tab
guitar tuner
Autoscroll
slow
fast
+/-
esc
set tempo
stop
Help us to improve Ultimate-Guitar.com Take our survey!
×
Author
Difficulty
Tuning
novice
D A D G B E
Email:Jareks_skate@hotmail.com

Tuning:Drop D

We play this song in drop D and it sounds right. Some of the strumming
patterns might be a little off but we did the best we could. You'll have to
listen to the song. Well you should always listen to a song before you read
the tab. This is our first tab so rate us and tell us how we did. Feel free
to point out mistakes

 Intro: (Guitar 1)
e|--3-3---3--3-222---3-3---3--3|
B|-----------------------------|
G|00-0-000-00------00-0-000-00-|
D|-----------------------------|
A|-----------------------------|
D|-----------------------------|
  .. . ... ..      .. . ... ..

 Guitar Riff: (Guitar 1)
e|6h7p6---9--------6h7p6---9---|
B|-----9-7--76-7--------9-7--76|
G|-----------------------------| x2
D|-----------------------------|
A|-----------------------------|
D|-----------------------------|

 (Guitar 2 plays while guitar 1 plays the riff)
e|--------------------------------|
B|--------------------------------|
G|4444444444444444------6-66666666| x2
D|44444444444444444444-46-66666666|
A|22222222222222224444-44-44444444|
D|----------------4444-4----------|

 Verse: (Guitar 2)
e|-------------------------------|
B|-------------------------------|
G|4444444444444444------666666666| x4
D|4444444444444444444444666666666|
A|2222222222222222444444444444444|
D|----------------444444---------|
  .. . ... ..     .. . ... ..

 (I don't know if guitar 1 plays this or the same as guitar two. But
whichever you play, guitar 1 comes in after guitar 2 plays the verse twice)
e|--3-3---3--3-222|
B|----------------|
G|00-0-000-00-----| x4
D|----------------|
A|----------------|
D|----------------|
  .. . ... ..

 Pre Chorus: (Both guitars from here I guess)
e|---------------------------------------------------------|
B|---------------------------------------------------------|
G|4~--------------4~------6~------4~--------------4-4-4-4-4|
D|4~------1~------4~------6~------4~------1~------4-4-4-4-4|
A|2~------1~------2~------4~------2~------1~------2-2-2-2-6|
D|--------1~------------------------------1~---------------|

 Chorus:
e|--------------------------------|   |--------------------------------|
B|--------------------------------|   |--------------------------------|
G|--------66666666--------44444444|x2 |--------666666----------44444444|
D|44444444666666661111111144444444|   |444444--666666--111111--44444444|
A|44444444444444441111111122222222|   |444444--444444--111111--22222222|
D|44444444--------11111111--------|   |444444----------111111----------|

 (After the 9s are 11s, not 1s)
e|---------------------------|
B|---------------------------|
G|---------------------------|
D|66666666666666669999999911~|
A|66666666666666669999999911~|
D|66666666666666669999999911~|

 Verse 2: (Guitar 2)
e|-------------------------------|
B|-------------------------------|
G|4444444444444444------666666666| x4
D|4444444444444444444444666666666|
A|2222222222222222444444444444444|
D|----------------444444---------|
  .. . ... ..     .. . ... ..

 (Guitar 1 plays along with guitar 2 or this riff through the whole verse
this time)
e|--3-3---3--3-222|
B|----------------|
G|00-0-000-00-----| x8
D|----------------|
A|----------------|
D|----------------|
  .. . ... ..

 Pre Chorus 2: (Both guitars from here)
e|---------------------------------------------------------|
B|---------------------------------------------------------|
G|4~--------------4~------6~------4~--------------4-4-4-4-4|
D|4~------1~------4~------6~------4~------1~------4-4-4-4-4|
A|2~------1~------2~------4~------2~------1~------2-2-2-2-6|
D|--------1~------------------------------1~---------------|

 Chorus 2:
e|--------------------------------|   |--------------------------------|
B|--------------------------------|   |--------------------------------|
G|--------66666666--------44444444|x2 |--------666666----------44444444|
D|44444444666666661111111144444444|   |444444--666666--111111--44444444|
A|44444444444444441111111122222222|   |444444--444444--111111--22222222|
D|44444444--------11111111--------|   |444444----------111111----------|

 (After the 9s are 11s, not 1s)
e|----------------------------------------|
B|----------------------------------------|
G|----------------------------------------|
D|6666666666666666999999991111111111111111|
A|6666666666666666999999991111111111111111|
D|6666666666666666999999991111111111111111|

 (1s again)
e|----------------------------------------------------------------|
B|----------------------------------------------------------------|
G|----------------4444444444444444----------------6666666666666666| x2
D|1111111111111111444444444444444444444444444444446666666666666666|
A|1111111111111111222222222222222244444444444444444444444444444444|
D|1111111111111111----------------4444444444444444----------------|

 Guitar Riff 2: (Guitar 1)
e|6h7p6---9--------6h7p6---9------6h7p6---9----------|
B|-----9-7--76-7--------9-7--76--------9-7--76-7---7~|
G|---------------------------------------------------| 
D|---------------------------------------------------|
A|---------------------------------------------------|
D|---------------------------------------------------|

 (Guitar 2 plays while guitar 1 plays the riff)
e|--------------------------------|
B|----------------------------------------------------|
G|4444444444444444------6-666666664444444444444444----| 
D|44444444444444444444-46-6666666644444444444444444441|
A|22222222222222224444-44-4444444422222222222222224441|
D|----------------4444-4--------------------------4441|

 Chorus 3:
e|--------------------------------|   |--------------------------------|
B|--------------------------------|   |--------------------------------|
G|--------66666666--------44444444|x2 |--------666666----------44444444|
D|44444444666666661111111144444444|   |444444--666666--111111--44444444|
A|44444444444444441111111122222222|   |444444--444444--111111--22222222|
D|44444444--------11111111--------|   |444444----------111111----------|


(After the 9s are 11s, not 1s)
e|---------------------------|
B|---------------------------|
G|---------------------------|
D|66666666666666669999999911~|
A|66666666666666669999999911~|
D|66666666666666669999999911~|

 Outro:
e|----------------------------------------------------|
B|----------------------------------------------------|
G|----------------------------------------------------|
D|6~--------------9~------11~------4~-----------------|
A|6~--------------9~------11~------4~-----------------|
D|6~--------------9~------11~------4~-----------------|


----------------------------------------------------------------------------
|.= Palm Mute
|h= Hammer On
|p= Pull Off
|~= Let Ring
Suggest correction
comments
print report bad tab
1 comment total.
0 reply
rayajpwns 31 wrote on February 13 2008, 11:40 pm

the pre chorus and intro is kinda off.
but other than that its a good tab

guest
You may want to rate the tab now too:
select rating
Please do not post tabs as comments. Select "correction" instead!