Oops, an error
Loading. Please wait.

Skyway Avenue Tab

version 7
version 7
51,266 views 16 this week
7 commentsread comments
1 2 3 4 5
excellent!
x 8
add to favorites
launch autoscroll
font size
0
reset
how to read this tab
guitar tuner
Tab Pro tools
  • play this tab
  • loop segment
  • change instrument
  • show fretboard
  • metronome
×
Best way to learn
"Skyway Avenue"
Autoscroll
slow
fast
+/-
esc
set tempo
stop
Contributor
Difficulty
Tuning
novice
D A D G B E
Drop D Tuning.

this is an amazing song of their album out now.
have fun.

* = Palm Mute
~ = Ring
/ = Slide up neck
\ = Slide down neck

Guitar 1

Intro: 
E||-------------------|-------------------|(x2)
B||-----7-7--7-7-666--|-------------------|
G||-------------------|--------6(x16)-----|
D||-4-4-4-4-4-4-------|-4(x16)-6----------|
A||-------------------|-4------4----------|
D||-------------------|-4-----------------|
    * *   * * *

Verse:
E||-------------------|-------------------|(x2)
B||-------------------|-------------------|
G||-4-4-----4---4-444-|-------------------|
D||-4-4-4-4-4-4-4-444-|-4-4-----4---4-444-|
A||-2-2-2-2-2-2-2-222-|-4-4-4-4-4-4-4-444-|
D||-------------------|-4-4-4-4-4-4-4-444-|
        * *   *             * *   *

Prechorus:
E||-------------------|-------------------|
B||-------------------|-------------------|
G||-8~-----6~---------|-4~-----6~---------|
D||-8~-----6~---------|-4~-----6~---------|
A||-6~-----4~---------|-2~-----4~---------|
D||-------------------|-------------------|

E||-------------------|-------------------|
B||-------------------|-------------------|
G||-8~-----6~---------|-4(x7)-6-----------|
D||-8~-----6~---------|-4-----6-----------|
A||-6~-----4~---------|-2-----4-----------|
D||-------------------|-------------------|

Chorus:
E||---------------------------------------|(x2)
B||---------------------------------------|
G||-------6(x8)-------4(x8)---------------|
D||-4(x8)-6-----1(x8)-4-------------------|
A||-4-----4-----1-----2-------------------|
D||-4-----------1-------------------------|

E||-------------------|-------------------|
B||-------------------|-------------------|
G||---------666---6---|---------444-4444--|
D||-444---4-666---6---|-111---1-444-4444--|
A||-444---4-444---4---|-111---1-222-2222--|
D||-444---4-----------|-111---1-----------|

E||-------------------|
B||-------------------|
G||-------------------|
D||-6(x16)-9(x8)-11---|
A||-6------9-----11---|
D||-6------9-----11---|(11's not 1's)

Repeat Verse:

Repeat Prechorus:

Repeat Chorus:

Bridge:
E||---------------------------------------|(x2)----------|
B||---------------------------------------|--------------|
G||--------4(x16)--------6(x16)-----------|--------------|
D||-1(x16)-4------4(x16)-6----------------|--------------|
A||-1------2------4------4----------------|--------------|
D||-1-------------4-----------------------|--------------|

Repeat Chorus:

Outro:
E||-------------------|
B||-------------------|
G||-6~----------------|
D||-6~-----4~---------|
A||-4~-----4~---------|
D||--------4~---------|


Guitar 2:

Intro: (x2)
E||-------------------|---------------------------------------------------------|
B||-------------------|-11-12-11----------------------11-12-11------------------|
G||-------------------|----------13-13-11-10-13-10-11----------13-13-11-10-11-10|
D||-------------------|---------------------------------------------------------|
A||-------------------|---------------------------------------------------------|
D||-------------------|---------------------------------------------------------|

Verse:

E||-------------------|-------------------|(x2)
B||---------------222-|-------------------|
G||-4-4-----4---4-333-|---------4-----444-|
D||-4-4-4-4-4-4-4-444-|-4-4-----6---8-444-|
A||-2-2-2-2-2-2-2-----|-4-4-4-4-4-4-4-444-|
D||-------------------|-4-4-4-4-4-4-4-444-|
        * *   *             * *   *

Prechorus (Same as Guitar 1):

Chorus: (play twice and then break for rhythm guitar and then come back in)
E||-------------------|-------------------------------|(x2)(fast)
B||-11-12-11---11-----|-14-----14-----14--------------|
G||----------13--13-11|---13-11--13-11--13-11-10/11---|
D||-------------------|-------------------------------|
A||-------------------|-------------------------------|
D||-------------------|-------------------------------|

Transition to Verse:
E||-------------------|
B||--13//////////////-|
G||--14//////////////-|
D||-------------------|
A||-------------------|
D||-------------------|

Repeat Verse Gt.2:

Repeat Prechorus Gt.2:

Repeat Chorus Gt.2:

Bridge:
E||-------------------|---------------------------------------------------------|
B||-------------------|-11-12-11----------------------11-12-11------------------|
G||-------------------|----------13-13-11-10-13-10-11---------13-13-10-11~------|
D||-------------------|---------------------------------------------------------|
A||-------------------|---------------------------------------------------------|
D||-------------------|---------------------------------------------------------|

Repeat Chorus Gt.2:
comments
print report bad tab
7 comments total. Showing first comments.
+1 reply
Sam Rulez D00d wrote on July 31 2008, 03:56 pm

well, everythings good except the intro for guitaar 2.
i think it should be this:
e|-676--9---676--9---676------676------|
B|----97-767---97-76----97-767---97-76-|
G|------------------------9--------9---|
D|-------------------------------------|
A|-------------------------------------|
D|-------------------------------------|

+1 reply
voltage11 wrote on August 1 2008, 03:23 pm

well, Sam Rulez D00d, you bring up an interesting point. i did take this specific riff into consideration at first but i saw them perform it live using what i put down. i will correct the tab putting up your riff as well as mine and giving you full credit for your work. thanks for the feedback.

+1 reply
miss_untitled wrote on August 5 2008, 12:26 pm

best tab so far!! great work. but i think you should add in guitar's intro which i think should sound like this:
e|--11h12p11--9---------------------11h12p11--9---------------]
b|--------------11------11--10--11---------------11------11-10]
g|------------------11-------------------------------11-------] x2
d|------------------------------------------------------------]
a|------------------------------------------------------------]
d|------------------------------------------------------------]

otherwise, great work on this tab!! 5*

I want to post or [tab]
guest
You may want to rate the tab now too:
select rating
Please do not post tabs as comments. Select "correction" instead!