Oops, an error
Loading. Please wait.

Skyway Avenue Acoustic chords

version 8
version 8
354 views 48 this week
no commentswrite comment
1 2 3 4 5
3 more votes to show rating
add to favorites
×
Save as Personal and add changes to this tab that will be seen only by you. Learn more ›
×
You can save this tab as Personal to edit and correct it or add notes. All changes will be seen only by you. Learn more »
launch autoscroll
font size
0
reset
transpose
0
reset
simplify chords
display chords
guitar tuner
edit
Autoscroll
slow
fast
+/-
esc
set tempo
stop
Strumming
There is no strumming pattern for this song yet. and get +5 IQ
-------------------------------------------------------------------------------
                             SKYWAY AVENUE (ACOUSTIC) - We The Kings
-------------------------------------------------------------------------------
Tabbed by: shkuipers

Just an easy way to play the song in standard tuning.  This is NOT how they play this song acoustic. but
it sounds pretty close so I thought I'd share.

Tuning: EADGBe

Capo: 1st Fret

Chords Used:
Bbadd9: x13311
F:      133211
C:      x32010
Dm:     xx0231
G5:     3x0033


Intro:

Guitar 1

E|-x-x-3-3-x-3-3-2-2-2-x-x-3-3-x-3-3------|
B|-x-x-3-3-x-3-3-3-3-3-x-x-3-3-x-3-3------|
G|-x-x-0-0-x-0-0-0-0-0-x-x-0-0-x-0-0------|
D|----------------------------------------|
A|----------------------------------------|
E|----------------------------------------|

Guitar 2

e|--5h6p5----8-------5h6p5----8-------5h6p5----8-------5h6p5----8------------|
B|-------8-6---6-5-6------8-6---6/5--------8-6---6-5-6------8-6---6/5--------|
G|---------------------------------------------------------------------------|
D|---------------------------------------------------------------------------|
A|---------------------------------------------------------------------------|
E|---------------------------------------------------------------------------|

[Verse 1:]

Bbadd9                           F            C
She said, 'Let's change our luck this night is all we've got

Bbadd9                           F            C
Drive fast until we crash this dead end life.'

Bbadd9                           F            C
Sweet dreams that won't come true I'd leave it all for you

Bbadd9                           F            C
Brick walls are closing in let's make a run tonight


Dm   Bbadd9 F      C
    Blinded by the lights 

Dm       Bbadd9         F              C
Hold you through forever Won't let you go
         
[Chorus:]   
             F        C           Dm
'Cause if you jump I will jump, too
          Bbadd9
 We will fall together
F         C          Dm
 From the building's ledge
        Bbadd9
 Never looking back at
F           C
 what we've done
Dm        Bbadd9
We'll say it was love
G5              Dm      Bbadd9
 'Cause I would die for you
C
 On Skyway Avenue

[Verse 2:]

Bbadd9                             F              C
 She said, 'Don't change your mind Let's leave this town behind

Bbadd9                          F            C
 We'll race right off the cliff they will remember this.'

Bbadd9                 F            C
 It all got so mundane with you I'm back again

Bbadd9                         F            C
 Just take me by the hand we're close to the edge


 Dm   Bbadd9 F      C
    Blinded by the lights 

Dm       Bbadd9         F              C
Hold you through forever Won't let you go


[Chorus:]

             F        C           Dm
'Cause if you jump I will jump, too

          Bbadd9
 We will fall together

F         C          Dm
 From the building's ledge

        Bbadd9
 Never looking back at

F           C
 what we've done

Dm        Bbadd9
We'll say it was love

G5              Dm      Bbadd9
 'Cause I would die for you
C
 On Skyway Avenue

[Bridge:]

Dm                     Bbadd9        F        C
 Where are your guts to fly? Soaring through, through the night

          Dm                               Bbadd9      
 And if you take that last step, I'll follow you

F                       C
 Leave the edge and fly we're finally alive

e|--5h6p5----8-------5h6p5----8-------5h6p5----8-------5h6p5-----------------|
B|-------8-6---6-5-6------8-6---6/5--------8-6---6-5-6------8-6--------------|
G|---------------------------------------------------------------------------|
D|---------------------------------------------------------------------------|
A|---------------------------------------------------------------------------|
E|---------------------------------------------------------------------------|


[Chorus:]

             F        C           Dm
'Cause if you jump I will jump, too

          Bbadd9
 We will fall together

F         C          Dm
 From the building's ledge

        Bbadd9
 Never looking back at

F           C
 what we've done

Dm        Bbadd9
We'll say it was love

G5              Dm      Bbadd9
 'Cause I would die for you

      C
 On Skyway Avenue

G5                Bbadd9  C               F
 So what's left to prove? We have made it through


************************************

| /   slide up
| \   slide down
| h   hammer-on
| p   pull-off
| ~   vibrato
| +   harmonic
| x   Mute note
| b   Bend
| pb  Pre-bend
| br  Bend release
| pbr Pre-bend release
| brb Bend release bend

************************************
Suggest correction
Creating personal tab
Creating personal tab
You can edit any tab online and save it as your Personal.

You can edit, replace or remove any tab part or add personal notes – all changes will be seen only by you.

Personal tabs can be accessed anytime from any device, even offline.
Learn more »
Give kudos to tab author, rate the tab!
1 2 3 4 5
comments
print report bad tab
guest
Wanna post a correction for this tab? Suggest correction