Oops, an error
Loading. Please wait.

Somebody To Call My Own Tab

2,052 views 3 this week
no commentswrite comment
1 2 3 4 5
please rate
add to favorites
launch autoscroll
font size
0
reset
how to read this tab
guitar tuner
Autoscroll
slow
fast
+/-
esc
set tempo
stop
Help us to improve Ultimate-Guitar.com Take our survey!
×
Author
Difficulty
novice
-----------------------------------------------------------------------------
			     SONG NAME - Band Name
Somebody To Call My Own– by We The Kings
-----------------------------------------------------------------------------
Tabbed by: Robin Daniel
Email:Robinizer3@yahoo.com
http://www.youtube.com/user/seniorrobinizer3 i'm on youtube :D
Tuning: 1 step up from standard
Intro:
e|-------------------------------------------------------------------------------|
B|-------------------------------------------------------------------------------|
G|----------77-7-7-xx--999-----7-7-77777-----------------------------------------|
D|---999-x--77-7-7-xx--999-x---7-7-77777---------(x2)------------------------ ---|
A|---999-x--55-5-5-xx--777-x---5-5-55555-----------------------------------------|
E|---777-x-----------------x-----------------------------------------------------|
Verse 1:
 I woke up with a headache from a night I wont forget
I close my eyes cause this aint over yet
Brooklyn bowl I lost control and knocked down all your pins
e|------------------------------------------------------------------------------|
B|------------------------------------------------------------------------------|
G|----------77-7-7-xx--999-----7-7-77777----------------------------------------|
D|---999-x--77-7-7-xx--999-x---7-7-77777-----------(x3)-------------------------|
A|---999-x--55-5-5-xx--777-x---5-5-55555----------------------------------------|
E|---777-x-----------------x----------------------------------------------------|
Pre chorus:
Cause I just want to be with you|
Youd rather be alone|
Its a long walk home					     (hold)
e|------0------- 2---|--------3- --2------0----0|----0--3-3---------------------|
B|----1---1----1---1-|-------1----1------1----1-|---1-1---1---------------------|
G|--2-------2-2------|-2----2----2------2----2--|--2---2--2---------------------|
D|0--------- 0-------|---0-0----0------0----0---|-0-----------------------------|
A|-------------------|--------------------------|-------------------------------|
E|------------------ |--------------------------|-------------------------------|


Chorus:
When somebody loves (G) Somebody Folds (002450) your driving me (C)
 Crazy you dont (D) know, When somebody stays (G) somebody goes (002450)
Sometimes its (C) only lonely road (D) so dont (G) say good bye I cant (002450) close my
eyes, (C)Im spinning around inside (D) when somebody rocks(G) Somebody rolls (002450)I
just (C) need to find somebody (D) to call my oh,oh oh oh OH oh,
 (C)(C)(xxxx) (C)(C)(xxxx)(G)(G) (xxxx)
Singing whoa oh oh oh oh oh own.

(002450)(002450)(xxxx)(002450)(002450)(xxxx)
(D) (D) (xxxx) D) (D) (xxxx)

* when you play (D)(D) that means play the D cord twice *
*(xxxx)Just Means play four dead notes, strumming all strings quickly)*


Verse2 :
I woke up with the taste of you tattoed on my lips
Its all messed up I cant recall the kiss
Hand greanade got blown away when you pulled out the pin
e|------------------------------------------------------------------------------|
B|------------------------------------------------------------------------------|
G|----------77-7-7-xx--999-----7-7-77777----------------------------------------|
D|---999-x--77-7-7-xx--999-x---7-7-77777-----------(x3)-------------------------|
A|---999-x--55-5-5-xx--777-x---5-5-55555----------------------------------------|
E|---777-x-----------------x----------------------------------------------------|
Pre chorus:
Cause I just want to be with you|
Youd rather be alone|
Its a long walk home					     (hold)
e|------0------- 2---|--------3- --2------0----0|----0--3-3---------------------|
B|----1---1----1---1-|-------1----1------1----1-|---1-1---1---------------------|
G|--2-------2-2------|-2----2----2------2----2--|--2---2--2---------------------|
D|0--------- 0-------|---0-0----0------0----0---|-0-----------------------------|
A|-------------------|--------------------------|-------------------------------|
E|------------------ |--------------------------|-------------------------------|








Chorus:
When somebody loves (G) Somebody Folds (002450) youre driving me (C)
 Crazy you dont (D) know, When somebody stays (G) somebody goes (002450)
Sometimes its (C) only lonely road (D) so dont (G) say good bye I cant (002450) close my
eyes, (C)Im spinning around inside (D) when somebody rocks(G) Somebody rolls (002450)I
just (C) need to find somebody (D) to call my oh,oh oh oh OH oh,
 (C)(C)(xxxx) (C)(C)(xxxx)(G)(G) (xxxx)
Singing whoa oh oh oh oh oh own.

(002450)(002450)(xxxx)(002450)(002450)(xxxx)
(D) (D) (xxxx) D) (D) (xxxx)
*****************************************************************************

* when you play (D)(D) that means play the D cord twice *
*(xxxx)Just Means play four dead notes, strumming all strings quickly)*
*also remember the song is 1 step up from the standard tuning*

****************************************************************************


Bridge:
my only one if I come undone would you sow me     up
(577)-------(799)------------( 9 11 11)----(799)—(577)
If Im broken Down would you stand your ground and fall   in   love
---(577)---------------------(799)------------ (9 11 11)-(799--(577)
With me.
(799)-hold-

*for those of you who dont know, (577),(799) and things like that,… Im referring to the
3 top, deep sounding strings. So in (577) 5 would stand for the 5th fret on the 6th
string, and the next seven is the 7th fret on the 5th string, the next seven stands for 
the 7th fret on the 4th string. Play them all at once and I think its called a power cord.*
After bridge:
When somebody loves somebody folds, your driving me crazy you dont know
When somebody stays somebody goes,   sometimes its only lonely road
e|------------------------------------------------------------------------------|
B|------------------------------------------------------------------------------|
G|------------11------------11----------------------11-----------11-------------|
D|------------11------------11----------------------11-----------11---(x2)------|
A|------------9-------------9-----------------------9------------8--------------|
E|------------------------------------------------------------------------------|




So (G)  dont say good bye I cant (002450) close my eyes, (C)Im spinning around inside
(D) when somebody rocks(G) Somebody rolls (002450)I just (C) need to find somebody (D) to
call my own (G) –hold-


************************************

| /   slide up
| \   slide down
| h   hammer-on
| p   pull-off
| ~   vibrato
| +   harmonic
| x   Mute note
| b   Bend
| pb  Pre-bend
| br  Bend release
| pbr Pre-bend release
| brb Bend release bend

************************************
Suggest correction
Give kudos to tab author, rate the tab!
1 2 3 4 5
comments
print report bad tab
guest
You may want to rate the tab now too:
select rating
Please do not post tabs as comments. Select "correction" instead!