Oops, an error
Loading. Please wait.

Someone To Call My Own Bass

355 views 1 this week
no commentswrite comment
1 2 3 4 5
3 more votes to show rating
add to favorites
launch autoscroll
font size
0
reset
guitar tuner
×
Best way to learn
"Someone To Call My Own"
Autoscroll
slow
fast
+/-
esc
set tempo
stop
Author
Difficulty
Tuning
intermediate
D A D G
This song is from Sunshine State of Mind and is played by Drew Thomsen.
This is my first tab ever so hope you guys like it. Tuning is in Drop D. ENJOY!

/=Slide

Verse 1

Bass doesn't come in until about 0:17

G|----------------------------------------|
D|----------9-9-9999-11-11-111111-9-9-9999|
A|1/99-9-999------------------------------|
D|----------------------------------------|

Pre-chorus

G|----------------------------------------|
D|----------------------------------------|
A|-----4----9--8--6--4--2--2/6-4----------|
D|6---------------------------------------|

Chorus

G|--------------------------------|X2
D|--------------------------------|
A|----------------2222222244444444|
D|4444444411111111----------------|

G|--------------------------------|
D|11111111--------44444444--------|
A|--------22222222--------44444444|
D|--------------------------------|

G|--------------------------------|
D|--------------------------------|
A|----------------2222222244444444|
D|4444444411111111----------------|

G|---4-----4-----------------8-----8-----6-----6|
D|---------------4-----4------------------------|
A|2-----2-----------------6-----6-----4-----4---|
D|------------4-----4---------------------------|

Verse 2
Same as verse 1

Pre-Chorus

Chorus

G|--------------------------------|X2
D|--------------------------------|
A|----------------2222222244444444|
D|4444444411111111----------------|

G|--------------------------------|
D|11111111--------44444444--------|
A|--------22222222--------44444444|
D|--------------------------------|

G|--------------------------------|
D|--------------------------------|
A|----------------2222222244444444|
D|4444444411111111----------------|

Bridge

G|--------------------------------------------------------333333331-------|
D|----------------4444333311111111----------------44443333----------------|
A|2222222244444444----------------2222222244444444------------------------|
D|------------------------------------------------------------------------|

Last Chorus
G|--------------------------------|
D|--------------------------------|
A|--------------------------------|
D|--------------------------------|

G|--------------------------------|
D|--------------------------------|
A|--------------------------------|
D|--------------------------------|

G|--------------------------------|
D|11111111--------44444444--------|
A|--------22222222--------44444444|
D|--------------------------------|

G|--------------------------------|
D|--------------------------------|
A|----------------222222224-------|
D|4444444411111111---------------4|
Suggest correction
Give kudos to tab author, rate the tab!
1 2 3 4 5
comments
print report bad tab
guest
You may want to rate the tab now too:
select rating
Wanna post a correction for this tab? Suggest correction