Oops, an error
Loading. Please wait.

The Quiet Tab

1,569 views 3 this week
1 commentread comment
1 2 3 4 5
please rate
add to favorites
launch autoscroll
font size
0
reset
how to read this tab
guitar tuner
Autoscroll
slow
fast
+/-
esc
set tempo
stop
Help us to improve Ultimate-Guitar.com Take our survey!
×
Author
Difficulty
Tuning
novice
D A D G B E
Another Good Song from We The Kings :]

Intro:

Guitar 2:
e|----------------------------|--|
B|----------------------------|--|
G|----------------------------|--|
D|-3-3-1-3-3-3-1-3-3-3-1-3-4-3|--|
A|----------------------------|4-|
D|----------------------------|--|

this comes after the second one
Guitar 1:
e|-1-1---1-1-1---1-1-1---1-2-1-----|
B|-----4-------4-------4-------4-2-|
G|---------------------------------|
D|---------------------------------|
A|---------------------------------|
D|---------------------------------|

also comes after the second one
Bass
G|------------------------------------------------------|
D|------------------------------------------------------|
A|-----------------------------4-4--4-4-4--4-3-3--3-3-3-|
D|4-4--4-4-4--4-4-4--4-4-4--4---------------------------|

verse
e|---------------------------------------------------------|
B|---------------------------------------------------------|
G|-----------------------------6-6--6-6-6--6--6-6--6-6-6--6|
D|4-4--4-4-4--4-4-4--4-4-4--4--6-6--6-6-6--6--6-6--6-6-6--6|
A|4-4--4-4-4--4-4-4--4-4-4--4--4-4--4-4-4--4--3-3--3-3-3--3|
D|4-4--4-4-4--4-4-4--4-4-4--4------------------------------|

PreChorus
e|---------------------------------|
B|---------------------------------|
G|---------------------------------|
D|4-4--4-4-4---4/6-6--6-6-6--------|
A|4-4--4-4-4---4/6-6--6-6-6--------|
D|4-4--4-4-4---4/6-6--6-6-6--------|

Chorus
e|--------------------------------------------------------|--------|
B|--------------------------------------------------------|--------|
G|6-6-6-6-----------------------------6-6-6-6-------------|--------|
D|6-6-6-6--8-8-8-8--6-6-6-6--4-4-4-4--6-6-6-6--8-8-8-8--6-|1--4--6-|
A|4-4-4-4--8-8-8-8--6-6-6-6--4-4-4-4--4-4-4-4--8-8-8-8--6-|1--4--6-|
D|---------8-8-8-8--6-6-6-6--4-4-4-4-----------8-8-8-8--6-|1--4--6-|

(Repeat intro once)
(Verse)
(PreChorus)
(Chorus)

Bridge
e|----------------|------------------------------|
B|----------------|------------------------------|
G|----------------|------------------------------|
D|4-4-6-6-8-8-6-6-|-4-4--4-4-4---6-6-6-6-6-6-6-6-|
A|4-4-6-6-8-8-6-6-|-4-4--4-4-4---6-6-6-6-6-6-6-6-|
D|4-4-6-6-8-8-6-6-|-4-4--4-4-4---6-6-6-6-6-6-6-6-|

(Chorus)
(Intro)
Then ends with
e|---|
B|---|
G|---|
D|-4-|
A|-4-|
D|-4-|
Suggest correction
Give kudos to tab author, rate the tab!
1 2 3 4 5
comments
print report bad tab
1 comment total.
0 reply
ynnodnortep 110 wrote on April 2 2013, 10:41 am

impressive. Thank you for putting the bass and the guitar tabs on the same post. very helpful. is the bass the same all the way through?

guest
You may want to rate the tab now too:
select rating
Please do not post tabs as comments. Select "correction" instead!