Oops, an error
Loading. Please wait.

The View From Here Tab

version 1
version 1

Whole song

977 views 1 this week
no commentswrite comment
1 2 3 4 5
x 3
add to favorites
launch autoscroll
font size
0
reset
how to read this tab
guitar tuner
Autoscroll
slow
fast
+/-
esc
set tempo
stop
Help us to improve Ultimate-Guitar.com Take our survey!
×
Author
Difficulty
novice
The View From Here by We The Kings
Tunning: Standard
Tabbed by: Adan S. (hero904)
Love We the kings, I have tabbed a couple of their songs. Feel free to comment and rate. 

Intro: 
Piano Part:
e|-----------12----------12--------12---------12----|
B|----10-----------10p9-------9p7-------7h9---------|
G|--------------------------------------------------|
D|--------------------------------------------------|
A|--------------------------------------------------|
E|--------------------------------------------------|

Lead Guitar
e|----------------------------------| 
B|-10-x8---9-x8---7-x8---9-x8-------| 
G|----------------------------------| 
D|----------------------------------| x2
A|----------------------------------| 
E|----------------------------------|

Guitar 2
      A          E         D       E
e|----0----------0---------0-------0------| 
B|----0----------0---------0-------0------| 
G|----0----------9---------7-------9------| x2
D|----7----------9---------7-------9------| 
A|----7--x8------7-x8------5-x8----7-x8---| 
E|----5-----------------------------------| 


Verse 1:  Guitar 1
e|----------------------------------| 
B|-10-x8---9-x8---7-x8---9-x8-------| 
G|----------------------------------| 
D|----------------------------------| x2
A|----------------------------------| 
E|----------------------------------|

Guitar 2:
e|----0----------0---------0-------0------| 
B|----0----------0---------0-------0------| 
G|----0----------9---------7-------9------| x2
D|----7----------9---------7-------9------| 
A|----7--x8------7-x8------5-x8----7-x8---| 
E|----5-----------------------------------| 


Pre-Chorus
Bm                  E
We are dancing into life
Bm                  D           E
Like we broke in, crashing the night


Chorus
"Push ahead...."   "highest ledge.."
   A                       F#
e|----------------------------------| 
B|----------------------------------| 
G|----------------------------------| 
D|-7-----------------------4--------| 
A|-7-----------------------4--------| 
E|-5-----------------------2--------| 

"Tonight.."          "Every step.."     
   D                       E
e|----------------------------------| 
B|----------------------------------| 
G|-7-----------------------9--------| 
D|-7-x8--------------------9-x8-----| 
A|-5-----------------------7--------| 
E|----------------------------------|

"Push...             "..a beautiful" 
   A                       F#
e|----------------------------------| 
B|----------------------------------| 
G|----------------------------------| 
D|-7-----------------------4--------| 
A|-7-x8--------------------4-x8-----| 
E|-5-----------------------2--------| 

"After...                  
    D                       
e|-----------| 
B|-----------| 
G|--7--------| 
D|--7-x8-----| 
A|--5--------| 
E|-----------|


climbed, its never been so clear
     E           Bm     C#m     D     E 
e|------------------------------------------| 
B|------------------------------------------| 
G|---9-----------4------6-------7-----9-----| 
D|---9-x8--------4------6-------7-----9-----| 
A|---7-----------2------4-------5-----7-----| 
E|------------------------------------------| 

And at the top wed scream, I really like the view from here
 Bm          	     C#m          D              E 	   A
|------------------------------------------------------------| 
|------------------------------------------------------------| 
|-4------------------6------------7--------------9-----------| 
|-4------------------6------------7--------------9---------7-| 
|-2------------------4------------5--------------7---------7-| 
|----------------------------------------------------------5-|

	
Verse 2: 
(Same as verse 1)


Pre-Chorus
Bm                  E
We are dancing into life
Bm                  D           E
Like we broke in, crashing the night


Chorus
A          		          F#
Push ahead, push ahead past the highest ledge
D		       E
Tonight is ours with every step
A        	    	          F#
Push ahead, push ahead such a beautiful sight
D		           E         Bm     C#m      D     E
After every hill we have climbed, its never been so clear
Bm          	     C#m          D              E 	   A
And at the top we wouldd scream, I really like the view from here


Bridge:
"So take.............a bow"               
   F#			 D
e|---------------------------------| 
B|---------------------------------| 
G|-----------------------7---------| 
D|-4---------------------7---------| 
A|-4-x8------------------5-x8------| 
E|-2-------------------------------| 
"moment now................way down
          A			E
e|-----------------------------------| 
B|-----------------------------------| 
G|------------------------------9----| 
D|--------7---------------------9-x8-| 
A|--------7-x8------------------7----| 2x
E|--------5--------------------------| 


Chorus
A          		          F#
Push ahead, push ahead past the highest ledge
D		       E
Tonight is ours with every step
A        	    	          F#
Push ahead, push ahead such a beautiful sight
D		           E         Bm     C#m      D     E
After every hill we have climbed, its never been so clear
Bm          	     C#m          D              E 	   A
And at the top we would scream, I really like the view from here
Suggest correction
Give kudos to tab author, rate the tab!
1 2 3 4 5
comments
print report bad tab
guest
You may want to rate the tab now too:
select rating
Wanna post a correction for this tab? Suggest correction